Song name
# A B C D E F G H I J K L M N O P Q R S T U V W X Y Z

Coldplay - Beautiful World tab

Chorus:
e-----------------------------------------------------------------|
b-10-10-10-10-10-10-10-10-12-12-12-12-13-13-13-13-----------------|
g-------------------------------------------------9-9-9-9-9-9-9-9-|
d-----------------------------------------------------------------|
a-----------------------------------------------------------------|
e-----------------------------------------------------------------|


e----15-15----15--|
b----12-12--12--12|
g-----------------|
d-----------------|
a-----------------|
e-----------------|



e-10-10-10-10-10-10-10-10-12-12-12-12-13-13-13-13-|
b-------------------------------------------------|
g-------------------------------------------------|
d-------------------------------------------------|
a-------------------------------------------------|
e-------------------------------------------------|


e-------10-----------------10----------|
b---9h10-----9h10-9----9h10-----9h10-9-|
g--------------------------------------|
d--------------------------------------|
a--------------------------------------|
e--------------------------------------|



Solo
e-----12--12--12--12--12--12--12-------|
b-9/13--13--13--13--13--13--13--13\5---|
g--------------------------------------|
d--------------------------------------|
a--------------------------------------|
e--------------------------------------|


e------10-----------------10----------|
b--9h10-----9h10-9----9h10-----9h10-9-|
g-------------------------------------|
d-------------------------------------|
a-------------------------------------|
e-------------------------------------|
Tap to rate this tab
# A B C D E F G H I J K L M N O P Q R S T U V W X Y Z