Song name
# A B C D E F G H I J K L M N O P Q R S T U V W X Y Z

Coldplay - Warning Sign tab

This is my first tab and did it by ear so don't think its 100% correct but it sounds the same :)

Rhythm guitar has the capo on 2nd fret, for the live version and 3rd fret for recorded version.

Lead guitar has no capo

The chords are relative to the capo e.g 0=2 fret

Enjoy! :)

Intro (Rhythm Guitar)

E|--0---0---0-----0-----0-----0----0----0--------0--0--0-----------------------|
B|--1---1---1-----1-----1-----1----1----1--------1--1--1-----------------------|
G|--0---0---0-----0-----0-----0----0----0--------0--0--0-----------------------|
D|--2---2---2-----2-----2-----2----2----2--------2--2--2----------(X4)---------|
A|--2---3---3p0---0h3---3-----3----3p0--0h3------3--3--3-----------------------|
E|--3---3---3-----3-----3-----3----3----3--------3--3--3-----------------------|
    D   D   U     U     D     D    U    U       D   U   D

Verse (Rhythm Guitar)
E|--0------------0-------------------------0--------------0--------------------|
B|--6------------1-------------------------8--------------3--------------------|
G|--0------------0-------------------------0--------------0------------(X8)----|
D|--7------------2-------------------------9--------------4--------------------|
A|--8------------3-------------------------10-------------5--------------------|
E|--8------------3-------------------------10-------------5--------------------|
    D  D  U      D   D  U U D U D          D  D  U        D  D  U U D U D


Verse (Lead Guitar) starts on the 3rd time of the verse
E|--------------------------------------------------|
B|--5h7---------------------------------------------|
G|-----------6h7-p-6h7-p-6h7--------- (X4)----------|
D|--------------------------------------------------|
A|--------------------------------------------------|
E|--------------------------------------------------|


Pre Chorus (Rhythm Guitar)
E|--0---------------------|
B|--3---------------------|
G|--0---------------------|
D|--4---------------------|
A|--5---------------------|
E|--5---------------------|
    D D U U D U D D U U D U

Pre-Chorus (Lead Guitar)
E|----0--0--0--0--0--0--0--0--------|
B|--5--5--5--5--5--5--5--5--5\3-----|
G|----------------------------------|
D|----------------------------------|
A|----------------------------------|
E|----------------------------------|

Chorus (Rhythm Guitar)
E|--0----------------------------0------2-----2---------------------|
B|--1----------------------------0------2-----3---------------------|
G|--0----------------------------0------0-----2--------------(X2)---|
D|--2----------------------------2------0-----0---------------------|
A|--2----------------------------2------2-----x---------------------|
E|--3----------------------------0------3-----x---------------------|
    D D U U D D U U   DUDU (repeat strumming pattern though chorus)


Chorus (Lead Guitar)
E|----0--0--0--0--0--0--0--------0--0--0--0--0--0--------0--0--0--0--0--0--0-------|
B|--3--3--3--3--3--3--3--3\2--2--2--2--2--2--2--2/5----5--5--5--5--5--5--5--5------|
G|---------------------------------------------------------------------------------|
D|---------------------------------------------------------------------------------|
A|---------------------------------------------------------------------------------|
E|---------------------------------------------------------------------------------|

E|----0--0--0--0--0--0--0----------------|
B|--5--5--5--5--5--5--5--5---------------|
G|---------------------------------------|
D|------------------------------(X2)-----|
A|---------------------------------------|
E|---------------------------------------|

2nd verse and pre chorus (Rhythm Guitar)
Repeat 1st verse chords but play it 10 times and repeat pre chorus

2nd verse (Lead guitar)
Repeat the riff in the 1st verse but play it straight after the chorus and before 
the second chorus

 2nd Pre-Chorus (Lead Guitar)
E|-----12----12----12----12----12----12----12--------|
B|---------------------------------------------------|
G|--14----14----14----14----14----14----14----14-----|
D|---------------------------------------------------|
A|---------------------------------------------------|
E|---------------------------------------------------|

Chorus (Rhythm Guitar)
E|--0-------------------------0------2-----2---------------------|
B|--1-------------------------0------2-----3---------------------|
G|--0-------------------------0------0-----2--------------(X3)---|
D|--2-------------------------2------0-----0---------------------|
A|--2-------------------------2------2-----x---------------------|
E|--3-------------------------0------3-----x---------------------|
    D D U U D D U U   DUDU (repeat strumming pattern though chorus) but play the last 
chord for longer on the 3rd time :)

Chorus (Lead Guitar)
E|----12--12--12--12--12--12--12-------12--12--12--12--12--12--12--------|
B|--15--15--15--15--15--15--15--15--14--14--14--14--14--14--14--14-------|
G|-----------------------------------------------------------------------|
D|-----------------------------------------------------------------------|
A|-----------------------------------------------------------------------|
E|-----------------------------------------------------------------------|

E|----12--12--12--12--12--12--12---------12--12--12--12--12--12--12---------|
B|--------------------------------------------------------------------------|
G|--14--14--14--14--14--14--14--14--13--13--13--13--13--13--13--13----------|
D|---------------------------------------------------------------------(X3)-|
A|--------------------------------------------------------------------------|
E|--------------------------------------------------------------------------|

Outro (Rhythm Guitar)

E|--0----------------------6------0----0---------|
B|--8----------------------0------1----0---------|
G|--0----------------------0------0----0---------|
D|--9----------------------7------2----2-(X6)----|
A|--10---------------------8------3----2---------|
E|--10---------------------8------3----0---------|
    D D U U D D U U   DUDU (repeat strumming pattern)
Tap to rate this tab
# A B C D E F G H I J K L M N O P Q R S T U V W X Y Z