Song name
# A B C D E F G H I J K L M N O P Q R S T U V W X Y Z

Coldplay - Clocks tab

Capo 1st fret

e----------------------------------------------------------------------------|
B--------3-------3------3------1------1------1----1-----1------0-----0----0--|
G----------2-------2------2------2------2------2----2-----2------0-----0---0-|
D------------4-------4-------------2------2-----------2-----2------2-----2---|
A----------------------------------------------------------------------------|
E----------------------------------------------------------------------------|
Repeat 4 times


Repeat verse 4 times
Lights go out and i can't be saved,tides that i tried to swim against Sing-in
e-------------------------------------------------------------------------|
B--3---3---3---3--0--1---0----------1------1---1---1------0---------------|
G------------------------ ----2------------------------2-------2-0--------|
D--------------------------------------------------------------------2-0--|
A-------------------------------------------------------------------------|
E-------------------------------------------------------------------------|

     Do this twice     Youuuuuuuuuuuuuuuuuuuuuuu               Are
e----------------------------------------------------------------------------|
B--------3-------3------3------1------1------1----1-----1------0-----0----0--|
G----------2-------2------2------2------2------2----2-----2------0-----0---0-|
D------------4-------4-------------2------2-----------2-----2------2-----2---|
A----------------------------------------------------------------------------|
E----------------------------------------------------------------------------|

Reapeat this verse 8 times

e----3-2-----3-2----3-2-3-2----3-2----3-2-3-2----3-2---3-2-3-2---3-2---3-2-|
B--------3-------3----------1------1----------1------1---------0-----0-----|
G--------------------------------------------------------------------------|
D--------------------------------------------------------------------------|
A--------------------------------------------------------------------------|
E--------------------------------------------------------------------------|

     Do this twice Youuuuuuuuuuuuuuuuuu                           Are

e----------------------------------------------------------------------------|
B--------3-------3------3------1------1------1----1-----1------0-----0----0--|
G----------2-------2------2------2------2------2----2-----2------0-----0---0-|
D------------4-------4-------------2------2-----------2-----2------2-----2---|
A----------------------------------------------------------------------------|
E----------------------------------------------------------------------------|

Bridge:

Fmaj7                C          G

  and nothing else compares

Fmaj7                C          G

  oh nothing else compares

Fmaj7                C          G

  and nothing else compares


e----------------------------------------------------------------------------|
B--------3-------3------3------1------1------1----1-----1------0-----0----0--|
G----------2-------2------2------2------2------2----2-----2------0-----0---0-|
D------------4-------4-------------2------2-----------2-----2------2-----2---|
A----------------------------------------------------------------------------|
E----------------------------------------------------------------------------|

Play variation 2 times.
e----3-2-----3-2----3-2-3-2----3-2----3-2-3-2----3-2---3-2-3-2---3-2---3-2-|
B--------3-------3----------1------1----------1------1---------0-----0-----|
G--------------------------------------------------------------------------|
D--------------------------------------------------------------------------|
A--------------------------------------------------------------------------|
E--------------------------------------------------------------------------|
  Do this verse 2wice.
                  Youuuuuuuuuuuuuuuuuu                           Are
e----3-2-----3-2----3-2-3-2----3-2----3-2-3-2----3-2---3-2-3-2---3-2---3-2-|
B--------3-------3----------1------1----------1------1---------0-----0-----|
G--------------------------------------------------------------------------|
D--------------------------------------------------------------------------|
A--------------------------------------------------------------------------|
E--------------------------------------------------------------------------|

 Do the Home verse? 4 times.


         HOME!                     Home,      where I wanted  to  go
e----3-2-----3-2----3-2-3-2----3-2----3-2-3-2----3-2---3-2-3-2---3-2---3-2-|
B--------3-------3----------1------1----------1------1---------0-----0-----|
G--------------------------------------------------------------------------|
D--------------------------------------------------------------------------|
A--------------------------------------------------------------------------|
E--------------------------------------------------------------------------|

Play this 3 times.
e----3-2-----3-2----3-2-3-2----3-2----3-2-3-2----3-2---3-2-3-2---3-2---3-2-|
B--------3-------3----------1------1----------1------1---------0-----0-----|
G--------------------------------------------------------------------------|
D--------------------------------------------------------------------------|
A--------------------------------------------------------------------------|
E--------------------------------------------------------------------------|

e|-----X--------------------------------------------------------------------|
B|-----4--------------------------------------------------------------------|
G|-----3--------------------------------------------------------------------|
D|--------------------------------------------------------------------------|
A|--------------------------------------------------------------------------|
E|--------------------------------------------------------------------------|
Tap to rate this tab
# A B C D E F G H I J K L M N O P Q R S T U V W X Y Z