Song name
# A B C D E F G H I J K L M N O P Q R S T U V W X Y Z

Coldplay - Charlie Brown tab

Tabbed By: GuitarMan147 (perrydasschnabeltier)

Hey, so basically, when you play the chords (the capo 3 version), this is
what the tab can look like for the solo/intro. There are different ways of
playing this, but it helps to have a variety so you can find what's
comfortable for you. This is how I play it, and you can listen to the song
to get the gist of the timing if you need to :)
Hope it helps :)

(tab is not from capo 3 - don't play 14 instead of 11 etc.)

(h) = hammer on (optional)
/ = slide


e|----------------------------------------------------------|
B|---------11-----11-------11-------11---11-----11---11-----|
G|---8/10------10----10-8------8-7-----7-----7-----7--------|
D|----------------------------------------------------------|
A|----------------------------------------------------------|
E|----------------------------------------------------------|

e|------------------------------------------------------------------------------------|
B|------------------------------------------------------------------------------------|
G|----------7---------7---------7--------------------7---------7---------7------------|
D|---8(h)10----8(h)10----8(h)10----10--8------8(h)10----8(h)10----8(h)10----10--8-----|
A|---------------------------------------10-------------------------------------------|
E|------------------------------------------------------------------------------------|
Tap to rate this tab
 
# A B C D E F G H I J K L M N O P Q R S T U V W X Y Z