Song name
# A B C D E F G H I J K L M N O P Q R S T U V W X Y Z

Coldplay - Paradise Acoustic tab

This tab shows how Marty Schwarz plays the song in his video lesson
http://www.youtube.com/watch?v=SH9gnWN5748
There were many requests on the video for a tab so here it is. Enjoy ;)
(sorry voor any mistakes)

Capo on 3:

Intro/Chorus:       
                                             
            Em       G               D       A
e|-------|---0---|---3---|-------|---2---|---0---|
B|-------|---0---|---3---|-------|---3---|---2---|
G|-------|---0---|---0---|-------|---2---|---2---|
D|-------|---2---|---0---|-----0-|---0---|---2---|
A|-------|---2---|---2---|-0-2---|-------|---0---|
E|-3-2-0-|---0---|---3---|-------|-------|-------|

Verse 1/musical interlude:

    Bm       G       D       A
e|---2---|---3---|---2---|---0---|
B|---3---|---3---|---3---|---2---|
G|---4---|---0---|---2---|---2---|
D|---4---|---0---|---0---|---2---|
A|---2---|---2---|-------|---0---|
E|-------|---3---|-------|-------|

Verse 2:

     G       D       D       A
e|---3---|---2---|---2---|---0---|
B|---3---|---3---|---3---|---2---|
G|---0---|---2---|---2---|---2---|
D|---0---|---0---|---0---|---2---|
A|---2---|---x---|---x---|---0---|
E|---3---|---2---|---2---|---0---|

     G       Bm      Bm      A
e|---3---|---2---|---2---|---0---|
B|---3---|---3---|---3---|---2---|
G|---0---|---4---|---4---|---2---|
D|---0---|---4---|---4---|---2---|
A|---2---|---2---|---2---|---0---|
E|---3---|-------|-------|---0---|

     Em      G       D       A
e|---0---|---3---|---2---|---0---|
B|---0---|---3---|---3---|---2---|
G|---0---|---0---|---2---|---2---| 
D|---2---|---0---|---0---|---2---|
A|---2---|---2---|-------|---0---|
E|---0---|---3---|-------|-------|

     G       D       
e|---3---|---2---|
B|---3---|---3---|
G|---0---|---2---| 
D|---0---|---0---|
A|---2---|-------|
E|---3---|-------|

     G       D       A
e|---3---|---2---|---0---|
B|---3---|---3---|---2---|
G|---0---|---2---|---2---| (2x)
D|---0---|---0---|---2---|
A|---2---|-------|---0---|
E|---3---|-------|-------|

Bridge:

     Em      G       A       Bm      D       A
e|---0---|---3---|---0---|---2---|---2---|---0---|
B|---0---|---3---|---2---|---3---|---3---|---2---|
G|---0---|---0---|---2---|---4---|---2---|---2---| (3x)
D|---2---|---0---|---2---|---4---|-------|---2---|
A|---2---|---2---|---0---|---2---|-------|---0---|
E|---0---|---3---|-------|-------|-------|-------|

     G       D       A
e|---3---|---2---|---0---|
B|---3---|---3---|---2---|
G|---0---|---2---|---2---| (2x)
D|---0---|-------|---2---|
A|---2---|-------|---0---|
E|---3---|-------|-------|


0:13 Intro             (4x) 
0:40 Verse 1           (4x)
1:10 Musical Interlude (2x)
1:23 Verse 2           (1x)
2:00 Chorus            (4x)
2:29 Bridge            (1x)
3:02 Chorus            (repeat till end of the song)
Tap to rate this tab
# A B C D E F G H I J K L M N O P Q R S T U V W X Y Z