Song name
# A B C D E F G H I J K L M N O P Q R S T U V W X Y Z

Coldplay - Lovers In Japan Acoustic chords

Hey guys, This is my first tab but i'm pretty sure it is right.

standard tuning (i hope) and no capo ;)

intro:
____________________________________
E-----------------------------------|
B-----10-----7------3------3------2-|
G-----------------------------------|
D-----9------5------0---------------|
A--------------------------0------0-|
E-----------------------------------|  2X


verse: (always hammer on G4 2X)
______________________________________________________
E-----0-----------0-----------0-----------0-----------|
B-----3-----------3-----------3-----------3-----------|
G-----2-----------2-----------2-----------2-----------|
D-----0-----------0-----------0-----------0-----------|
A-----0-----------0-----------3-----------0-----------|
E-----3-----------X-----------X-----------3-----------|   4X

chorus:
I'm still working at this part. sorry :(

I think this part is called the bridge or the outro:
______________________________________________________
E-----0-----------0-----------2-----------2-----------|
B-----0-----------1-----------0-----------3-----------|
G-----0-----------0-----------0-----------2-----------|
D-----2-----------2-----------0-----------0-----------|
A-----2-----------3-----------2-----------0-----------|
E-----0-----------0-----------3-----------X-----------|  4X
__________________________________________________________________
E-----0-----------2-----------0-----------0-----------2-----------|
B-----0-----------3-----------1-----------1-----------3-----------|
G-----0-----------2-----------0-----------2-----------2-----------|
D-----2-----------0-----------2-----------2-----------0-----------|
A-----2-----------0-----------3-----------0-----------0-----------|
E-----0-----------X-----------0-----------0-----------X-----------| 1X

I hoped this helped you.
Tap to rate this tab
# A B C D E F G H I J K L M N O P Q R S T U V W X Y Z