Song name
# A B C D E F G H I J K L M N O P Q R S T U V W X Y Z

Coldplay - 42 tab

Coldplay - 42
by The Black Key


Thats my first tab so please excuse any mistakes.

I also tabbed the singing part at the beginning and the end of the song.
For me it sounds correct, more or less. Listen to the song to play it the
right way.


Singing:
e|----------------------------------------------------------------------|
B|----------------------------------------------------------------------|
G|----------------------------------------------------------------------|   x2
D|----10-10-h11---10-10-h11-10---10-11-13-11-10-8-h10-------------------|
A|----------------------------------------------------------------------|
E|----------------------------------------------------------------------|
     those who are dead....

after the second time play this:

e|----------------------------------------------------------------------|
B|----------------------------------------------------------------------|
G|----------------------------------------------------------------------|
D|----11-10-8---------------11--11-11-11--13-11-10----------------------|
A|----------------------------------------------------------------------|
E|----------------------------------------------------------------------|
    ...oooh                 time is so short.....

e|----------------------------------------------------------------------|
B|----------------------------------------------------------------------|
G|----------------------------------------------------------------------|
D|----10-h11-10-10-10-10----14----15---17-------------------------------|
A|----------------------------------------------------------------------|
E|----------------------------------------------------------------------|
   there must be something   more.    


Then play the whole part again but this time the end is a bit different:
  
....
 
e|----------------------------------------------------------------------|
B|----------------------------------------------------------------------|
G|------------------------------------------10---12---13---15-13-12~----|
D|----10-h11-10-10-10-10--14---15---17----------------------------------|
A|----------------------------------------------------------------------|
E|----------------------------------------------------------------------|
   there must be something more.....       



Then actually the guitar part starts:

e|----------------------------------------------------------------------|
B|--10------------------------------10----------------------------------|
G|----10-12-10-10-10-12b-10-10--------10-12-10-10-10-12b-10-10----------|
D|----------------------------------------------------------------------|
A|----------------------------------------------------------------------|
E|----------------------------------------------------------------------|
                                                                                x2
e|----------------------------------------------------------------------|
B|-10----------------------------------------------------------11-------|
G|-----10-12--13-13-13-13-13-13-13-13-13-13-13-13-13-13-13------10------|    
D|----------------------------------------------------------------------|
A|----------------------------------------------------------------------|
E|----------------------------------------------------------------------|


then guitar 2 starts to play:

(Im not sure about those tones on A-string)

e|-----------------------------------------------------------------------|
B|-----------------------------------------------------------------------|
G|-----------------------------------------------------------------------|
D|-----------------------------------------------------------------------|
A|-------------6b-------------------6b-----------------------------------|
E|-9-8-6-5-5-5---5-5----9-8-6-5-5-5---5-5--------------------------------|

e|-----------------------------------------------------------------------|
B|-----------------------------------------------------------------------|
G|-----------------------------------------------------------------------|
D|-----------------------------------------------------------------------|
A|-------------5b-------------------5b-----------------------------------|
E|-9-8-6-4-4-4---4-4----9-8-6-4-4-4---4-4--------------------------------|


e|-----------------------------------------------------------------------|
B|-----------------------------------------------------------------------|
G|-----------------------------------------------------------------------|
D|--------------------------------------------8-8-8----------------------|
A|-------------4b-------------------4b--------8-8-8----------------------|
E|-9-8-6-3-3-3---3-3----9-8-6-3-3-3---3-3-----6-6-6----------------------|


Solo
e|----------------------------------------------------------------------|
B|-----------------------6-------------------------------6--------------|
G|--8-8-5--8-8--5-8-8-8--------------8-8-5--8-8--5-8-8-8----------------|
D|--------------------------8-8-8-----------------------------8-8-8-----|(the powerchords are optional,
A|--------------------------8-8-8-----------------------------8-8-8-----| i play it to give it a bit
E|--------------------------6-6-6-----------------------------6-6-6-----| more power)

e|----------------------------------------------------------------------|
B|-----------------------------------------1-------1--------------------|
G|-1-1-1-1---1-1-1-1-3-------1-1-1-1---1-1---3-1-----3-1----------------|
D|--------------------3-------------------------------------------------|
A|----------------------------------------------------------------------|
E|----------------------------------------------------------------------|


Singing part at the end:

e|----------------------------------------------------------------------|
B|----------------------------------------------------------------------|
G|----------------------------------------------------------------------|
D|----10-10-h11---10-10-h11-10---10-11-13-11-10-8-h10--10/15------------|
A|----------------------------------------------------------------------|
E|----------------------------------------------------------------------|
Tap to rate this tab
# A B C D E F G H I J K L M N O P Q R S T U V W X Y Z