Song name
# A B C D E F G H I J K L M N O P Q R S T U V W X Y Z

Coldplay - In My Place Live tab

-------------------------------------------------------------------------------
                                         In My Place Live - Coldplay
-------------------------------------------------------------------------------
Tabbed by: Justin Tai

Tuning: Standard

INTRO

e|-12---12------9----9h12-12---12---------9----9h12-12---12------9----9h12-12---12----------9----9h12-|
B|-----------12---12----------------12-12---12----------------12---12--------------14\12-12---12------|
G|----9----9-----------------9----9--------------------9----9-----------------9-----------------------|
D|----------------------------------------------------------------------------------------------------|
A|----------------------------------------------------------------------------------------------------|
E|----------------------------------------------------------------------------------------------------|

e|-12---12------9----9h12-12---12---------9----9h12-12---12------9----9h12-12---12----------9----9----|
B|-----------12---12----------------12-12---12----------------12---12--------------14\12-12---12---10-|
G|----9----9-----------------9----9--------------------9----9-----------------9-----------------------|
D|----------------------------------------------------------------------------------------------------|
A|----------------------------------------------------------------------------------------------------|
E|----------------------------------------------------------------------------------------------------|


VERSE

No guitar before the first chorus


CHORUS

(Listen to the live verion of the song from around 2011 and you'll get the strumming pattern)

e|-5--5--5----------5--5--7--7----|
B|-7--7--7----------5--5--9--10p9-|
G|-7--7--7----------6--6--9--9----|
D|-7--7--7----------7--7--9--9----|
A|-5--5--5--7h9-12--7--7--7--7----|
E|------------------5--5----------| Repeat three times

e|-5--5--5--5-5-5---------------|
B|-7--7--7--7-7-7--------9b10r9-|
G|-7--7--7--7-7-7------9--------|
D|-7--7--7--7-7-7--7/9----------|
A|-5--5--5--5-5-5---------------|
E|------------------------------|


CHORUS-OUTRO

e|-12---12------9----9h12-12---12---------9----9h12-12---12------9----9h12-12---12----------9----9----|
B|-----------12---12----------------12-12---12----------------12---12--------------14\12-12---12---10-|
G|----9----9-----------------9----9--------------------9----9-----------------9-----------------------|
D|----------------------------------------------------------------------------------------------------|
A|----------------------------------------------------------------------------------------------------|
E|----------------------------------------------------------------------------------------------------|


VERSE

   I was scared, I was scared. Tired and underprepared...
e|------------------------------|
B|------------------------------|
G|---------------------------9--|
D|------------------------------|
A|------------------------------|
E|------------------------------| 
Artistically play the note a few times in this third verse so it fits in time with the music
(Jonny varies when and how many times that note is played in each live recording)


e|-----------------------------------------------------------------------------------------|
B|---7/10---10---9---9---9---9-9---9h10p9---9---9h10---10---10---10---9---9---9h10p9---9---|
G|-9------9----9---9---9---9-----9--------9---9------9----9----9----9---9---9--------9---9-|
D|-----------------------------------------------------------------------------------------|
A|-----------------------------------------------------------------------------------------|
E|-----------------------------------------------------------------------------------------|
Again, this part varies depending on the live recording (this way is approximately 
the way it's done on the Live 2012 album)

REPEAT CHORUS


CHORUS-OUTRO AND BRIDGE

e|-12---12------9----9h12-12---12---------9----9h12-12---12------9----9h12-12---12----------9----9h12-|
B|-----------12---12----------------12-12---12----------------12---12--------------14\12-12---12------|
G|----9----9-----------------9----9--------------------9----9-----------------9-----------------------|
D|----------------------------------------------------------------------------------------------------|
A|----------------------------------------------------------------------------------------------------|
E|----------------------------------------------------------------------------------------------------|
Repeat 4 times

e|-12---12------9----9h12-12---12---------9----9h12-12---12------9----9h12-12---12----------9----9----|
B|-----------12---12----------------12-12---12----------------12---12--------------14\12-12---12------|
G|----9----9-----------------9----9--------------------9----9-----------------9-----------------------|
D|----------------------------------------------------------------------------------------------------|
A|----------------------------------------------------------------------------------------------------|
E|----------------------------------------------------------------------------------------------------|


OUTRO
                                                     Oooh.....yeah.
e|------------------4-----------------------4---------------------5-----------8/9--|
B|--------------------5-----5-----------------5------------------5------------9/10-|
G|---6-----6------------6---6---6-----6---------6--13-----------6------------------|
D|-----7-----7--------------------7-----7----------14----------7-------------------|
A|--------------2/4-------4---------------4--------14---------7--------------------|
E|-5-----4--------------------5-----2--------------12------------------------------|

Again, the outro changes depending on the live recording. This outro is from the Live 2012 album

************************************

| /   slide up
| \   slide down
| h   hammer-on
| p   pull-off
| ~   vibrato
| +   harmonic
| x   Mute note
| b   Bend
| pb  Pre-bend
| br  Bend release
| pbr Pre-bend release
| brb Bend release bend

************************************

Leave a comment down below if you have any suggestions. I think this should be correct though.
All rights belong to Coldplay and Capitol/Parlophone/Respective label owner.
Thanks.
Tap to rate this tab
# A B C D E F G H I J K L M N O P Q R S T U V W X Y Z