Song name
# A B C D E F G H I J K L M N O P Q R S T U V W X Y Z

Coldplay - Charlie Brown Acoustic chords

Highlighted       Show chord diagrams
Charlie Brown
Coldplay

Capo 3rd fret

Intro: Em            C        G

E|-----3-------3---------3-------3--3-----3-----3----3--|
B|--3-------3-----3--1-----1--0--------0-----0-----0----|
G|--0-------0-----0--0-----0--0--------0-----0-----0----|
D|------------------------------------------------------|
A|------------------------------------------------------|
E|------------------------------------------------------|
      Em         C        Em           Am                 Em~
E|----------------------------------------------||---3--|
B|-----0----0----0-----------0----0----0--------||------|
G|--0h2--0h2--0h2---2--0--0h2--0h2--0h2---2--0-+||------|-
D|-------0h2-----------2-------0h2-------------+||---2--|-
A|----------------------------------------------||------|
E|----------------------------------------------||------|
(h=hammer on)

~Em        C     G
        I stole a key
       Em                      C
Took a car downtown where the lost boys meet
          G                Am                         Em
I took a car downtown and took what they offered me
    C    G
To set me free
           Em                    C
I saw the lights go down at the end of the scene
           G                          Am
I saw the lights go down and they're standing in front of me

Em C G G Em C Em Am

Em           C      G
        My scarecrow dreams
           Em                     C
When they smashed my heart into smithereens
          G                     Am                    Em
I'll be a bright red rose come bursting the concrete
      C     G
Be a cartoon heart

C
Light a fire, from a spark
D                            C
Light a fire, a flame in my heart

            C
We'll run wild
                         Em
We'll be glowing in the dark


C G G Em C Em Am

Em C G G Em C Em Am


         D
All the boys, all the girls
         C              G
All the madness in the world
         D
All the boys, all the girls
         C              G
All the madness that occurs
         D
All the highs, all the lows
        C
As the room is spinning, oh

C
We'll run wild oh
                            Em
We'll start glowing in the dark

Em  C  G  Em C  Em  Am x2

C
So we soar luminous and wired
                         G
We'll be glowing in the dark

             ||
Piano Outro  ||
             ||

That was my first Tab, thanks for playing.
Original chords by: VanVeenTabs, but I tabbed the beginning and made some of my own
adjustments. You can check out their version here:
http://tabs.ultimate-guitar.com/c/coldplay/charlie_brown_ver4_crd.htm

Enjoy
`ja3is
Tap to rate this tab
# A B C D E F G H I J K L M N O P Q R S T U V W X Y Z