Song name
# A B C D E F G H I J K L M N O P Q R S T U V W X Y Z

Coldplay - Fix You Live tab

-------------------------------------------------------------------------------
                             Fix You Live - Coldplay
-------------------------------------------------------------------------------
Tabbed by:Joel Workman
E-mail: joel.workman@hotmail.co.uk

Tuning:(Low) E
             A
             D
             G
             B
     (High)  D#           (weird but right)


This is how Buckland plays it on the Coldplay Live 2012 CD

Guitar doesn't come in until first chorus.

Chorus:(Play first part twice) 

D#|--------------------------------------------------------------------------|
B|-----------4-4-------4-4-4-----4/6-6------4/6-6-6--------------------------|
G|----3h5---------3h5--------3h5-------3h5-----------------------------------|
D|---------------------------------------------------------------------------|
A|---------------------------------------------------------------------------|
E|---------------------------------------------------------------------------|


D#|--------------------------------------------------------------------------|
B|-------4-4-------4-4-4-------4/6-6-----------------------------------------|
G|--3h5-------3h5---------3h5------------------------------------------------|
D|---------------------------------------------------------------------------|
A|---------------------------------------------------------------------------|
E|---------------------------------------------------------------------------|


Instrumental: (Play 4 times)

D#|-------12-12------11-11---------------------------------------------------|
B|---------------------------------------------------------------------------|
G|--12---------12------------------------------------------------------------|
D|---------------------------------------------------------------------------|
A|---------------------------------------------------------------------------|
E|---------------------------------------------------------------------------|

Verse: (play 8 times)

D#|-------12-12------11-11---------------------------------------------------|
B|--11----------11-----------------------------------------------------------|
G|---------------------------------------------------------------------------|
D|---------------------------------------------------------------------------|
A|---------------------------------------------------------------------------|
E|---------------------------------------------------------------------------|

Instrumental 2/Bridge:(play 8 times)

D#|--0-0-0-0-0-0-0-0-0-0-0-0-0--0--0--0---0-0-0-0-0-0-0-0-0-0-0-0-0--0--0--0-|
B|--4-4-4-4-4-4-4-4-4-4-4-4/11-11-11-11--4-4-4-4-4-4-4-4-4-4-4-4/11-11-11-11-|
G|---------------------------------------------------------------------------|
D|---------------------------------------------------------------------------|
A|---------------------------------------------------------------------------|
E|---------------------------------------------------------------------------|

D#|--0-0-0-0-0-0-0-0-0-0-0-0-0--0--0--0---0-0-0-0-0-0-0-0-0-0-0-0-0-0-0-0----|
B|--4-4-4-4-4-4-4-4-4-4-4-4/11-11-11-11--4-4-4-4-3-3-3-3-3-3-3-3-3-3-3-3-----|
B|---------------------------------------------------------------------------|
G|---------------------------------------------------------------------------|
D|---------------------------------------------------------------------------|
A|---------------------------------------------------------------------------|
E|---------------------------------------------------------------------------|

The guitar ends on the 4th fret of B and open D# at the start of last chorus.

Feel free to make corrections (if they're right!)
************************************

| /   slide up
| \   slide down
| h   hammer-on

************************************
Tap to rate this tab
# A B C D E F G H I J K L M N O P Q R S T U V W X Y Z