Song name
# A B C D E F G H I J K L M N O P Q R S T U V W X Y Z

Coldplay - Atlas tab

For any complaints, please contact me @ claudiu.katz@gmail.com

Here is the tab - I'm not 100% sure on a few notes, but all in all it sounds good.

The key changes 3 times in the song ( Db to Em during the verse and it goes in B on the 
chorus ).

I will update the tab soon with the missing parts.

Here's how to play:

Intro


e ------9----9----9----9----9----9----|
B -----7-7--7-7--7-7--7-7--7-7--7-7---|
G ----6----6----6----6----6----6------|
D ------------------------------------|
A ------------------------------------|
E ------------------------------------|


Verse 1 + 2



e ------9----9----9----9----7----7----7----7----10----10----10----10----9----9----9----9--|
B -----7-7--7-7--7-7--7-7--7-7--7-7--7-7--7-7--7--7--7--7--7--7--7--7--7-7--7-7--7-7--7-7-|
G ----6----6----6----6----6----6----6----6----6-----6-----6-----6-----6----6----6----6----|
D ----------------------------------------------------------------------------------------|
A ----------------------------------------------------------------------------------------|
E ----------------------------------------------------------------------------------------|

e --------12-------12-------12-------12-------11-------11-------11-------11---------------|
B ------14--14---14--14---14--14---14--14---14--14---14--14---14--14---14--14-------------|
G ----13-------13-------13-------13-------13-------13-------13-------13-------------------|
D ----------------------------------------------------------------------------------------|
A ----------------------------------------------------------------------------------------|
E ----------------------------------------------------------------------------------------|

e --------14-------14-------14-------14-------12-------12-------12-------12---------------|
B ------14--14---14--14---14--14---14--14---14--14---14--14---14--14---14--14-------------|
G ----13-------13-------13-------13-------13-------13-------13-------13-------------------|
D ----------------------------------------------------------------------------------------|
A ----------------------------------------------------------------------------------------|
E ----------------------------------------------------------------------------------------|

e ---------16-------16------16-------16-------17-------17-------17-------17---------------|
B -------14--14---14--14--14--14---14--14---14--14---14--14---14--14---14--14-------------|
G -----13-------13------13-------13-------13-------13-------13-------13-------------------|
D ----------------------------------------------------------------------------------------|
A ----------------------------------------------------------------------------------------|
E ----------------------------------------------------------------------------------------|

e ---------16-------16-------14-------14-------12-------12--------------------------------|
B -------14--14---14--14---14--14---14--14---14--14---14--14------------------------------|
G -----13-------13-------13-------13-------13-------13------------------------------------|
D ----------------------------------------------------------------------------------------|
A ----------------------------------------------------------------------------------------|
E ----------------------------------------------------------------------------------------|

e -------9----9----9----9----11----11----11----11----|
B ------7-7--7-7--7-7--7-7--9--9--9--9--9--9--9--9---|
G -----6----6----6----6----8-----8-----8-----8-------|
D ---------------------------------------------------|
A ---------------------------------------------------|
E ---------------------------------------------------|
x 2 all of this - then you go into the chorus


Chorus chords: F# E E B.
Tap to rate this tab
# A B C D E F G H I J K L M N O P Q R S T U V W X Y Z