Song name
# A B C D E F G H I J K L M N O P Q R S T U V W X Y Z

Coldplay - Til Kingdom Come tab

Notes: This is based on the version by theCatinTheHat with modifications for the way I play it

Tuning: CACGBE


Intro:

E-----0-----0-|
B-----1-----1-|
G-----0-----0-|
C-----0-----0-|
A-----3-----3-|
C--0--x--0--x-|


Verse 1:

   Steal my heart and hold my tongue
E--0-----0--0---------0----0--0-|
B--1-----3--5---------5----3--1-|
G--0-----0--0---------0----0--0-|
C--0-----0--0---------0----0--0-|
A--3-----5--7---------7----5--3-|
C--0-----0--0---------0----0--0-|

   I feel my time, my time has come
E----0----0--0--------0----0---0-|
B----5----6--8--------8----3---5-|
G----0----0--0--------0----0---0-|
C----0----0--0--------0----0---0-|
A----7----8--10------10----5---7-|
C----0----0--0--------0----0---0-|

   Let me in, un - lock the door
E--0---0--0--------0-----0--0-|
B--1---3--5--------5-----3--1-|
G--0---0--0--------0-----0--0-|
C--0---0--0--------0-----0--0-|
A--3---5--7--------7-----5--3-|
C--0---0--0--------0-----0--0-|

  I've ne - ver felt this way be - fore
E------0----0---0----0----0---0----0-|
B------8----5---6----3----5---0----1-|
G------0----0---0----0----0---0----0-|
C------0----0---0----0----0---0----0-|
A------10---7---8----5----7---2----3-|
C------0----0---0----0----0---0----0-|


Middle 8:

   The wheels just keep on turn - ing
E------0-----------0--------------0-|
B------5-----------5--------------5-|
G------5-----------0--------------0-|
C------4-----------5--------------0-|
A------0-----------0--------------3-|
C------0-----------0--------------0-|

   The drummer be - gins to drum
E------0------0---------0-|
B------5------5---------5-|
G------5------0---------0-|
C------4------5---------0-|
A------0------0---------3-|
C------0------0---------0-|


   I don't know which way I'm go - ing
E------0-----------0--------------0-|
B------5-----------5--------------5-|
G------5-----------0--------------0-|
C------4-----------5--------------0-|
A------0-----------0--------------3-|
C------0-----------0--------------0-|

   I don't know which way I've come
E------0------0---------0-|
B------5------5---------5-|
G------5------0---------0-|
C------4------5---------0-|
A------0------0---------3-|
C------0------0---------0-|


(played over) Solo:

E--0--0--0--0--0---|
B--5--3--5--3--1---|
G--0--0--0--0--0---|
C--4--5--7--5--4---|
A--3--5--7--5--3---|
C--0--0--0--0--0---|


Verse 2:

   Hold my head in - side your hands
E--0----0--0---------0----0----0-|
B--1----3--5---------5----3----1-|
G--0----0--0---------0----0----0-|
C--0----0--0---------0----0----0-|
A--3----5--7---------7----5----3-|
C--0----0--0---------0----0----0-|

   I need some - one who un - der - stands
E----0----0------0-------0----0-----0-|
B----5----6------8-------8----3-----5-|
G----0----0------0-------0----0-----0-|
C----0----0------0-------0----0-----0-|
A----7----8-----10------10----5-----7-|
C----0----0------0-------0----0-----0-|

   I need some - one, some - one who hears
E----0----0------0-----------0----0--0-|
B----1----3------5-----------5----3--1-|
G----0----0------0-----------0----0--0-|
C----0----0------0-----------0----0--0-|
A----3----5------7-----------7----5--3-|
C----0----0------0-----------0----0--0-|

   For you, I've wai - ted all these years
E------0----0----0-----0---0---0-----0-|
B------8----5----6-----3---5---0-----1-|
G------0----0----0-----0---0---0-----0-|
C------0----0----0-----0---0---0-----0-|
A------10---7----8-----5---7---2-----3-|
C------0----0----0-----0---0---0-----0-|


Chorus:

   For you I'd wait, 'til kingdom come
E--------------0------------------0-|
B-------------10------------------5-|
G-------------10------------------0-|
C--------------0------------------0-|
A-------------12------------------7-|
C--------------0------------------0-|

   Until my day, my day is done
E-----------0--------------0-|
B----------10--------------5-|
G----------10--------------0-|
C-----------0--------------0-|
A----------12--------------7-|
C-----------0--------------0-|

   And say you'll come and set me free
E-----------------0--------0-----|
B----------------10-------13-----|
G----------------10-------12-----|
C-----------------0-------12-----|
A----------------12--------0-----|
C-----------------0--------0-----|

   Just say you'll wait,    you'll wait for me
E------------------0-----0-------0-|
B------------------5-----3-------1-|
G------------------0-----0-------0-|
C------------------7-----5-------0-|
A------------------7-----5-------3-|
C------------------0-----0-------0-|


(played over) Solo:

E--0--0--0--0--0---|
B--5--3--5--3--1---|
G--0--0--0--0--0---|
C--4--5--7--5--4---|
A--3--5--7--5--3---|
C--0--0--0--0--0---|


Verse 3:

   In your tears and in your blood
E--0--0----0---------0----0--0-|
B--1--3----5---------5----3--1-|
G--0--0----0---------0----0--0-|
C--0--0----0---------0----0--0-|
A--3--5----7---------7----5--3-|
C--0--0----0---------0----0--0-|

   In your fire and in your flood
E--0--0----0--------0--0----0-|
B--5--6----8--------8--3----5-|
G--0--0----0--------0--0----0-|
C--0--0----0--------0--0----0-|
A--7--8----10------10--5----7-|
C--0--0----0--------0--0----0-|

   I heard you laugh, I heard you say
E----0-----0---0--------0-----0---0-|
B----1-----3---5--------5-----3---1-|
G----0-----0---0--------0-----0---0-|
C----0-----0---0--------0-----0---0-|
A----3-----5---7--------7-----5---3-|
C----0-----0---0--------0-----0---0-|

   I would - n't change a  sin - gle thing
E----0-------0---0------0--0-----0---0-|
B----8-------5---6------3--5-----0---1-|
G----0-------0---0------0--0-----0---0-|
C----0-------0---0------0--0-----0---0-|
A----10------7---8------5--7-----2---3-|
C----0-------0---0------0--0-----0---0-|


Middle 8:

   The wheels just keep on turn - ing
E------0-----------0--------------0-|
B------5-----------5--------------5-|
G------5-----------0--------------0-|
C------4-----------5--------------0-|
A------0-----------0--------------3-|
C------0-----------0--------------0-|

   The drummer be - gins to drum
E------0------0---------0-|
B------5------5---------5-|
G------5------0---------0-|
C------4------5---------0-|
A------0------0---------3-|
C------0------0---------0-|

   I don't know which way I'm go - ing
E------0-----------0--------------0-|
B------5-----------5--------------5-|
G------5-----------0--------------0-|
C------4-----------5--------------0-|
A------0-----------0--------------3-|
C------0-----------0--------------0-|

   I don't know what I've be - come
E------0------0---------0-|
B------5------5---------5-|
G------5------0---------0-|
C------4------5---------0-|
A------0------0---------3-|
C------0------0---------0-|


Chorus:

   For you I'd wait, 'til kingdom come
E--------------x------------------0-|
B-------------10------------------5-|
G-------------10------------------0-|
C--------------0------------------0-|
A-------------12------------------7-|
C--------------0------------------0-|

   Until my day, my day is done
E-----------x--------------0-|
B----------10--------------5-|
G----------10--------------0-|
C-----------0--------------0-|
A-----------12-------------7-|
C-----------0--------------0-|

   And say you'll come and set me free
E-----------------0--------0------|
B----------------10-------13------|
G----------------10-------12------|
C-----------------0-------12------|
A----------------12--------0------|
C-----------------0--------0------|

   Just say you'll wait,    you'll wait for me
E------------------0-----0------------------0-|
B------------------5-----3------------------1-|
G------------------0-----0------------------0-|
C------------------7-----5------------------0-|
A------------------7-----5------------------3-|
C------------------0-----0------------------0-|

   Just say you'll wait,    you'll wait for me
E------------------0-----0------------------0-|
B------------------5-----3------------------1-|
G------------------0-----0------------------0-|
C------------------7-----5------------------0-|
A------------------7-----5------------------3-|
C------------------0-----0------------------0-|

   Just say you'll wait,    you'll wait for me
E------------------0-----0------------------0-|
B------------------5-----3------------------1-|
G------------------0-----0------------------0-|
C------------------7-----5------------------0-|
A------------------7-----5------------------3-|
C------------------0-----0------------------0-|
Tap to rate this tab
 
# A B C D E F G H I J K L M N O P Q R S T U V W X Y Z