Song name
# A B C D E F G H I J K L M N O P Q R S T U V W X Y Z

Coldplay - Atlas tab

-------------------------------------------------------------------------------
                                                        ATLAS - Coldplay
-------------------------------------------------------------------------------
Tabbed by: Justin T.

Tuning: Standard

e|-------------16-16-16-14-11-------------11-12-11-11-----------|
B|----------------------------14-11-12-14-----------------------|
G|--------------------------------------------------------------|
D|--------------------------------------------------------------|
A|--------------------------------------------------------------|
E|--------------------------------------------------------------|


e|--------------16-16-16-16-16-16/18-14-16----------------------|
B|-----------------------------------------14-16-14-16-17-16-17-|
G|--------------------------------------------------------------|
D|--------------------------------------------------------------|
A|--------------------------------------------------------------|
E|--------------------------------------------------------------|


e|-16-16-16-16-16-14-11-----------------------------------------|
B|----------------------14-11-12-14-16-16-14-16--12-11-12-11-14-|
G|--------------------------------------------------------------|
D|--------------------------------------------------------------|
A|--------------------------------------------------------------|
E|--------------------------------------------------------------|

Repeat and add

e|--------------|
B|-12-11-14-----|
G|--------------|
D|--------------|
A|--------------|
E|--------------|

************************************

| /   slide up
| \   slide down
| h   hammer-on
| p   pull-off
| ~   vibrato
| +   harmonic
| x   Mute note
| b   Bend
| pb  Pre-bend
| br  Bend release
| pbr Pre-bend release
| brb Bend release bend

************************************
Tap to rate this tab
# A B C D E F G H I J K L M N O P Q R S T U V W X Y Z