Song name
# A B C D E F G H I J K L M N O P Q R S T U V W X Y Z

Coldplay - Rush Of Blood To The Head tab

Help us improve GuitareTab! Take a short survey!
-------------------------------------------------------------------------------
			     Rush of Blood to the Head - Coldplay
-------------------------------------------------------------------------------
Tabbed by: Jordan Elek
Email: burnincheez@aim.com

No other tab had the proper alternate tuning to sound exactly like the recording, so 
it is.

** Tuning: EADGBc **

Chords Used:

    Am      C/G       Em      Fmaj      G6      D/F#      Bb
c|--0--------0--------0--------0--------0--------0--------0--------|
B|--1--------1--------0--------1--------0--------3--------3--------|
G|--2--------0--------0--------2--------4--------2--------3--------|
D|--2--------2--------2--------3--------5--------0--------3--------|
A|--0--------3--------2--------3--------5--------x--------1--------|
E|-----------3--------0--------1--------3--------2-----------------|

Riff1 (transition)
c|---0---0---0---|
B|---1---1---1---|
G|---2---0---2---|
D|---2---0---2---|
A|---0---0---0---|
E|---------------|

Outro riff (for a single acoustic guitar)
c|--4/6--------4/6---|
B|--5/7--------x-----|
G|--2/4---or---x-----|
D|--2/4--------2/4---|
A|--0----------0-----|
E|-------------------|

I'll only plot the first verse, the one interlude, and the chorus. The rest of the song 
the same progressions.

Verse:

Am                                                C/G
He said I'm gonna buy this place and burn it down

Em                                 Riff1 (Am)
I'm gonna put it six feet underground

Am                                              C/G
He said I'm gonna buy this place and watch it fall

Em                                            Riff1 (Am)
Stand here beside me baby in the crumbling walls

repeat until

Interlude:

Fmaj   G6   Fmaj   G6
Ah ah ah, ah ah ah...

Chorus:

Fmaj                                           D/F#
Honey, all the movements you're starting to make

                                Fmaj
See me crumble and fall on my face

                                 D/F#
And I know the mistakes that I made

        Bb                        Fmaj
See it all disappear without a trace

                                  D/F#
And they call as they beckon you on

              Bb                   Am C/G Em Riff1
They said start as you mean to go on

Am                          C/G  Em Riff1 Am C/G Em
Start as you mean to go on


| /  slide up
| \  slide down
| h  hammer-on
| p  pull-off
| ~  vibrato
| +  harmonic
| x  Mute note
===============================================================================
Related for Rush Of Blood To The Head tab