Song name
# A B C D E F G H I J K L M N O P Q R S T U V W X Y Z

Coldplay - Dont Panic tab

DON'T PANIC
Coldplay
Parachutes (2000)


Tuning: Standard (EADGBe)

Chords:

 Fmaj7     133210
 Fmaj9#11  133000
 Am        x02210
 C/G       332010
 Fmaj9     133010     thumb can be used on 6th (E) string whenever appropriate
 Am(5)     577550
 Dmadd9    (10)(12)(12)(10)(10)(0)
 G6        355430
(Fmaj13)  (13x230)    can be used in the outro/last verse


Intro:
Fmaj7 Fmaj7 Fmaj9#11 // Fmaj7 Fmaj7 Fmaj9#11 //
Fmaj7 Fmaj7 Fmaj9#11 // Fmaj7 Fmaj7 Fmaj9#11 //


Am               // C/G
Bones, sinking like stones
(C/G)       // Fmaj7  // Fmaj9 //
All that we've fought for
Am(5)            // C/G
Homes, places we've grown
(C/G)      // Fmaj7   // Fmaj9#11 //
All of us are done for
Dmadd9                           // Am(5) //
And we live in a beautiful world
G6                     // Dmadd9
   Yeah we do, yeah we do-o
(Dmadd9)                    // Fmaj7 Fmaj9 Fmaj7 Fmaj9 // Fmaj7 Fmaj9 Fmaj7 //
We live in a beautiful world


Am               // C/G
Bones, sinking like stones
(C/G)       // Fmaj7  // Fmaj9 //
All that we've fought for
Am(5)            // C/G
Homes, places we've grown
(C/G)      // Fmaj7   // Fmaj9#11 //
All of us are done for
Dmadd9                           // Am(5) //
And we live in a beautiful world
G6                     // Dmadd9
   Yeah we do, yeah we do-o
(Dmadd9)                    // Fmaj7 Fmaj9 Fmaj7 Fmaj9 // Fmaj7 Fmaj9 Fmaj7 //
We live in a beautiful world

Piano Instrumental:
Am    // C/G // Fmaj7 // Fmaj9 //
Am(5) // C/G // Fmaj7 // Fmaj9#11 //

Dmadd9                           // Am(5) //
And we live in a beautiful world
G6                     // Dmadd9
   Yeah we do, yeah we do-o
(Dmadd9)                    // Fmaj7 Fmaj9 Fmaj7 Fmaj9 // Fmaj7 Fmaj9 Fmaj7 //
We live in a beautiful world

Guitar Instrumental:
Let ring for all notes

       Am             // C/G             //
e|----|-----12--12--12--|12--12--12--12---|
B|---5|/13----13--13--13|--13--13--13--13-|
G|----|-----------------|-----------------|
D|----|-----------------|-----------------|
A|----|-----------------|-----------------|
E|----|-----------------|-----------------|

  Fmaj7                 // Fmaj9         //
e|------5---------|--------5--------------|
B|-\5-6-----5-6-5-|(5)-5-6-----5-6-5-(5)/-|
G|----------------|-----------------------|
D|----------------|-----------------------|
A|----------------|-----------------------|
E|----------------|-----------------------|

       Am             // C/G             //
     e|-----12--12--12--|12--12--12--12---|
     B|/13----13--13--13|--13--13--13--13-|
     G|-----------------|-----------------|
     D|-----------------|-----------------|
     A|-----------------|-----------------|
     E|-----------------|-----------------|

 Fmaj7                                   //
e|------5---------|--------5--------------||
B|-\5-6-----5-6-5-|(5)-5-6-----5-6-5------||
G|----------------|-----------------------||
D|----------------|-----------------------||
A|----------------|-----------------------||
E|----------------|-----------------------||


Am(5)       // C/G
Oh, all that I know
(C/G)                // Fmaj7   // Fmaj9
There's nothing here to run from                                                    Fmaj13 // Fmaj7
(Fmaj9) // Am           // C/G                 // Fmaj7  //      I play the ending as: "lean    on"
    'Cause yeah, everybody here's got somebody to lean on
Tap to rate this tab
# A B C D E F G H I J K L M N O P Q R S T U V W X Y Z