Song name
# A B C D E F G H I J K L M N O P Q R S T U V W X Y Z

Coldplay - Clocks Acoustic tab

Clocks  Coldplay (with capo on 1st fret)

Intro:  strumming x2
e-----------------------------------------------------------------|
B-3-----3-----3---1-----1-----1---1-----1-----1---0-----0-----0---|
G---2-----2-----2---2-----2-----2---2-----2-----2---0-----0-----0-|
D-----4-----4---------2-----2---------2-----2---------2-----2-----|
A-----------------------------------------------------------------|
E-----------------------------------------------------------------|

D Am Am G D Am Am G

        D                Am
The lights go out and I can't be saved
Am                    G
Tides that I tried to swim against
     D                Am
Have brought me down upon my knees
Am          G
Oh I beg, I beg and plead, singing.

D               Am
Come out of the things unsaid
Am             G
Shoot an apple off my head and a
D             Am
Trouble that can't be named
Am             G
Tigers waiting to be tamed, singing

D Am G  D Am G
You are, you are

repeat the chords D Am Am G

Confusion that never stops
The closing walls and the ticking clocks gonna
Come back and take you home
I could not stop, that you now know, singing

Come out upon my seas
Cursed missed opportunities am I
A part of the cure
Or am I part of the disease, singing

You are, you are
You are, you are
You are, you are

F               C      G
And nothing else compares
F               C      G
And nothing else compares
F               C      G  F
And nothing else compares

e-----------------------------------------------------------------|
B-3-----3-----3---1-----1-----1---1-----1-----1---0-----0-----0---|
G---2-----2-----2---2-----2-----2---2-----2-----2---0-----0-----0-|
D-----4-----4---------2-----2---------2-----2---------2-----2-----|
A-----------------------------------------------------------------|
E-----------------------------------------------------------------|
x2

e-3-2---3--2---3-2-3-2---3-2---3-2-3-2---3-2---3-2-3-2---3-2---3-2-|
B-----3------3---------1-----1---------1-----1---------0-----0-----|
G------------------------------------------------------------------|
D------------------------------------------------------------------|
A------------------------------------------------------------------|
E------------------------------------------------------------------|
Home,            home,      where I   wanted   to    go

e-3-2---3--2---3-2-3-2---3-2---3-2-3-2---3-2---3-2-3-2---3-2---3-2-|
B-----3------3---------1-----1---------1-----1---------0-----0-----|
G------------------------------------------------------------------|
D------------------------------------------------------------------|
A------------------------------------------------------------------|
E------------------------------------------------------------------|
Home,            home,      where I   wanted   to    go

e-3-2---3--2---3-2-3-2---3-2---3-2-3-2---3-2---3-2-3-2---3-2---3-2-|
B-----3------3---------1-----1---------1-----1---------0-----0-----|
G------------------------------------------------------------------|
D------------------------------------------------------------------|
A------------------------------------------------------------------|
E------------------------------------------------------------------|
Home,            home,      where I   wanted   to    go

e-3-2---3--2---3-2-3-2---3-2---3-2-3-2---3-2---3-2-3-2---3-2---3-2-|
B-----3------3---------1-----1---------1-----1---------0-----0-----|
G------------------------------------------------------------------|
D------------------------------------------------------------------|
A------------------------------------------------------------------|
E------------------------------------------------------------------|
Home,            home,      where I   wanted   to    go
Tap to rate this tab
# A B C D E F G H I J K L M N O P Q R S T U V W X Y Z