Song name
# A B C D E F G H I J K L M N O P Q R S T U V W X Y Z

Coldplay - Viva La Vida Live tab

These are the solo's that Jonny Buckland plays live during the whole song.

Listen carefully for the strumming. I tried to tab it good enough, but you have to 
listen to the song when you play it.


Interlude 1:(after first verse) (not played by Jonny Buckland, but you can play it)

e|16------------15|----------------|16------------15|----------------|
B|----------------|----------------|----------------|----------------|
G|----------------|----------------|----------------|----------------| x2
D|----------------|----------------|----------------|----------------|
A|----------------|----------------|----------------|----------------|
E|----------------|----------------|----------------|----------------|


Interlude 2: (after first chorus) (pluck the strings with your fingers)

e|----------------|----------------|----------------|----------------|
B|--14--14--14--14|--14--14--14--14|--13--13--13--13|--13--13--13--13|
G|--13--13--13--13|--13--13--13--13|--13--13--13--13|--13--13--13--13| x2
D|11--11--11--11--|11--11--11--11--|----------------|----------------|
A|----------------|----------------|11--11--11--11--|11--11--11--11--|
E|----------------|----------------|----------------|----------------|


Prechorus 2: (Revolutionairies wait) (pluck the strings again)

e|----------------|----------------|----------------|----------------|
B|--14--14--14--14|--14--14--14--14|--13--13--13--13|--13--13--13--13|
G|--13--13--13--13|--13--13--13--13|--13--13--13--13|--13--13--13--13| x2
D|11--11--11--11--|11--11--11--11--|----------------|----------------|
A|----------------|----------------|11--11--11--11--|11--11--11--11--|
E|----------------|----------------|----------------|----------------|


Chorus 2: (Use a pick now) (Listen carefully to hear the strumming)

e|-----------------|-----------------|-----------------|-----------------|
B|14-14-14-14-14-14|--14--14--14--14-|13-13-13-13-13-13|--13--13--13--13-|
G|13-13-13-13-13-13|--13--13--13--13-|13-13-13-13-13-13|--13--13--13--13-| x3
D|11-11-11-11-11-13|--13--13--13--13-|13-13-13-13-13-15|--15--15--15--15-|
A|-----------------|-----------------|11-11-11-11-11-15|--15--15--15--15-|
E|-----------------|-----------------|-----------------|-----------------|

e|-----------------|---------13-11---|-----------------|-----------------|
B|14-14-14-14-14-14|---------------14|13-------------13|-----------------|
G|13-13-13-13-13-13|-----------------|13-------13----13|-----------------|
D|11-11-11-11-11-13|-----------------|13-------------15|-----------------|
A|-----------------|-----------------|11-------------15|-----------------|
E|-----------------|-----------------|-----------------|-----------------|


Interlude 3:

e|----------------|----------------|    e|----------------|----------------| 
B|9--9--9--9----9-|9--9--9--9--9---|    B|11-11-11-11-11--|11-11-11-11-11--|
G|10-10-10-10---10|10-10-10-10-10--| x3 G|12-12-12-12-12--|12-12-12-12-12--|
D|11-11-11-11---10|10-10-10-10-10--|    D|13-13-13-13-13--|13-13-13-13-13--|
A|11-11-11-11---8-|8--8--8--8--8---|    A|13-13-13-13-13--|13-13-13-13-13--|
E|----------------|----------------|    E|----------------|----------------|

e|-----------------|-----------------|-----------------|-----------------|
B|14-14-14-14-14-14|--14--14--14--14-|13-13-13-13-13-13|--13--13--13--13-|
G|13-13-13-13-13-13|--13--13--13--13-|13-13-13-13-13-13|--13--13--13--13-| x2
D|11-11-11-11-11-13|--13--13--13--13-|13-13-13-13-13-15|--15--15--15--15-|
A|-----------------|-----------------|11-11-11-11-11-15|--15--15--15--15-|
E|-----------------|-----------------|-----------------|-----------------|


Chorus 3:

e|-----------------|-----------------|-----------------|-----------------|
B|14-14-14-14-14-14|--14--14--14--14-|13-13-13-13-13-13|--13--13--13--13-|
G|13-13-13-13-13-13|--13--13--13--13-|13-13-13-13-13-13|--13--13--13--13-| x3
D|11-11-11-11-11-13|--13--13--13--13-|13-13-13-13-13-15|--15--15--15--15-|
A|-----------------|-----------------|11-11-11-11-11-15|--15--15--15--15-|
E|-----------------|-----------------|-----------------|-----------------|

e|-----------------|---------13-11---|-----------------|-----------------|
B|14-14-14-14-14-14|---------------14|13-------------13|-----------------|
G|13-13-13-13-13-13|-----------------|13-------13----13|-----------------|
D|11-11-11-11-11-13|-----------------|13-------------15|-----------------|
A|-----------------|-----------------|11-------------15|-----------------|
E|-----------------|-----------------|-----------------|-----------------|
Tap to rate this tab
# A B C D E F G H I J K L M N O P Q R S T U V W X Y Z