Song name
# A B C D E F G H I J K L M N O P Q R S T U V W X Y Z

Coldplay - Trouble Acoustic tab

Trouble by Coldplay (MTV solo acoustic performance by Chris Martin)
Note the changes in the syncopated rhythmic strums in the performance:
http://www.youtube.com/watch?v=AJN7_Z4lnwo
Tabbed by AG February 5, 2014
EADGBd tuning (1st treble string dropped from e to d)

Verse 1
d |--0--0--0-----|--0--0--0-----|--0--0--0-----|--0--0--|--0--0--0--0--|--0--0--0-----|
B |--0--7--7-----|--0--7--7-----|--0--7--7-----|--1--1--|--0--7--7--7--|--1--1--0-----|
G |--4--0--7-----|--4--0--7-----|--4--0--7-----|--2--2--|--4--0--7--6--|--2--2--4-----|
D |--5--5--9-----|--5--5--9-----|--5--5--9-----|--3--2--|--5--5--9--9--|--3--2--5-----|
A |--5--7--9-----|--5--7--9-----|--5--7--9-----|--3--0--|--5--7--9--9--|--3--0--5-----|
E |--3--0--7-----|--3--0--7-----|--3--0--7-----|--1--x--|--3--0--7--7--|--1--x--3-----|

Verse 2
d |--0--0--0--0--|--0--0--0--0--|--0--0--0--0--|--0--0--|--0--0--0--0--|--0--0--0-----|
B |--0--7--7--7--|--0--7--7--7--|--0--7--7--7--|--1--1--|--0--7--7--7--|--1--1--0-----|
G |--4--0--7--6--|--4--0--7--6--|--4--0--7--6--|--2--2--|--4--0--7--6--|--2--2--4-----|
D |--5--5--9--9--|--5--5--9--9--|--5--5--9--9--|--3--2--|--5--5--9--9--|--3--2--5-----|
A |--5--7--9--9--|--5--7--9--9--|--5--7--9--9--|--3--0--|--5--7--9--9--|--3--0--5-----|
E |--3--0--7--7--|--3--0--7--7--|--3--0--7--7--|--1--x--|--3--0--7--7--|--1--x--3-----|

Chorus
d |--0-----0-----|--0-----0-----|--0-----0-----|--0-----0-----|
B |--0-----0-----|--0-----0-----|--0-----0-----|--0-----0-----|
G |--6-----0-----|--6-----0-----|--6-----0-----|--2-----0-----|
D |--7-----2-----|--7-----2-----|--7-----2-----|--2-----2-----|
A |--7-----2-----|--7-----2-----|--7-----2-----|--2-----2-----|
E |--5-----0-----|--5-----0-----|--5-----0-----|--x-----0-----|

Verse 3
d |--0--0--0--0--|--0--0--0-----|--0--0--0--0--|--0--0--|--0--0--0--0--|--0--0--0-----|
B |--0--7--7--7--|--0--7--7-----|--0--7--7--7--|--1--1--|--0--7--7--7--|--1--1--0-----|
G |--4--0--7--6--|--4--0--7-----|--4--0--7--6--|--2--2--|--4--0--7--6--|--2--2--4-----|
D |--5--5--9--9--|--5--5--9-----|--5--5--9--9--|--3--2--|--5--5--9--9--|--3--2--5-----|
A |--5--7--9--9--|--5--7--9-----|--5--7--9--9--|--3--0--|--5--7--9--9--|--3--0--5-----|
E |--3--0--7--7--|--3--0--7-----|--3--0--7--7--|--1--x--|--3--0--7--7--|--1--x--3-----|

Chorus
d |--0-----0-----|--0-----0-----|--0-----0-----|--0-----0-----|
B |--0-----0-----|--0-----0-----|--0-----0-----|--0-----0-----|
G |--6-----0-----|--6-----0-----|--6-----0-----|--2-----0-----|
D |--7-----2-----|--7-----2-----|--7-----2-----|--2-----2-----|
A |--7-----2-----|--7-----2-----|--7-----2-----|--2-----2-----|
E |--5-----0-----|--5-----0-----|--5-----0-----|--x-----0-----|
 
Interlude (see note below)
d |--0--0--0--0--|--0--0--0--0--|--0--0--0--0--|--0--0--0--0--|
B |--8--8--10-10-|--8--8--10-10-|--8--8--10-10-|--8--8--7--7--|
G |--0--0--7--0--|--0--0--7--0--|--0--0--7--0--|--0--0--7--6--|
D |--9--9--0--11-|--9--9--0--11-|--9--9--0--11-|--9--9--9--9--|
A |--10-7--9--12-|--10-7--9--12-|--10-7--9--12-|--10-7--9--9--|
E |--10-0--7--12-|--10-0--7--12-|--10-0--7--12-|--10-0--7--7--|

Outro (3x)
d |--0--2--0--2--|
B |--0--2--0--2--|
G |--0--2--4--2--|
D |--2--4--5--4--|
A |--2--4--5--4--|
E |--0--2--3--2--|

Alternative interlude (easier fingering for 3rd chord)
d |--0--0--7--0--|--0--0--7--0--|--0--0--0--0--|--0--0--0--0--|
B |--8--8--7--10-|--8--8--7--10-|--8--8--7--10-|--8--8--7--7--|
G |--0--0--7--0--|--0--0--7--0--|--0--0--7--0--|--0--0--7--6--|
D |--9--9--9--11-|--9--9--9--11-|--9--9--9--11-|--9--9--9--9--|
A |--10-7--9--12-|--10-7--9--12-|--10-7--9--12-|--10-7--9--9--|
E |--10-0--7--12-|--10-0--7--12-|--10-0--7--12-|--10-0--7--7--|

 
Tap to rate this tab
# A B C D E F G H I J K L M N O P Q R S T U V W X Y Z