Song name
# A B C D E F G H I J K L M N O P Q R S T U V W X Y Z

Coldplay - Magic tab

-------------------------------------------------------------------------------
                             MAGIC - Coldplay
-------------------------------------------------------------------------------
Tabbed by: Erik Alfredsson
E-mail: erik_alfredsson AT hotmail.com

Tuning: Standard, CAPO on 2nd fret


First I'll give you some tablature, then the chords:

INTRO-RIFF:

e|-----------|--------------|-----------|-------------|
B|-----------|--------------|-----------|-------------|
G|-----------|--------------|-----------|-------------|
D|-2-2-2-2-2-|-2-2-2------4-|-4-4-4-4-4-|-4-4-4-----2-|
A|-----------|--------2-2---|-----------|--------5-5--|
E|-----------|--------------|-----------|-------------|

SOLO (When I fall):

e|-----------|--------------|-----------------|-------------|
B|-----------|--------------|-----------------|-------------|
G|-----------|--------------|-7-------7-------|-------------|
D|-2-----2s/-|-/5-------s/7-|-----7-------7---|-(7)---------|
A|-----------|--------------|-----------------|-------------|
E|-----------|--------------|-----------------|-------------|

e|-------------|-------------------|-------------------|------------------|
B|-------------|-------------------|-------------------|------------------|
G|-------------|--------------5h7--|-7-----7------s/14-|-(14)-------------|
D|-2-------0h2h|5----------5h7---5-|----7--------------|------------------|
A|-------------|-------------------|-------------------|------------------|
E|-------------|-------------------|-------------------|------------------|

e|--------------------------------|----------------------------|
B|-12----12---12----12---12----12-|-12-----------12------------|
G|----14---------14---------14----|-----14-----------14-----14-|
D|--------------------------------|---------12-----------12----|
A|--------------------------------|----------------------------|
E|--------------------------------|----------------------------|

CHORDS USED:

     C       G       D      G/B
e|---0------(3)------2----------------|
B|---1-------0-------3-------0--------|
G|---0-------0-------2-------0--------|
D|---2-------0-------0-------0--------|
A|---3-------2---------------2--------|
E|-----------3------------------------|

INTRO: 
C - G - D - G/B

G/B     C         G       D
Call it magic, or call it true
G/B       C           G        D
I call it magic, when I'm with you
G/B            C       G           D
And I just got broken, broken into two
G/B             C               G       D     G/B
Still I call it magic, when I'm next to you

C
And I don't, no I don't, no I don't, no I don't
G
No I don't, it's true
D
I don't, no I don't, no I don't, no I don't
             G/B
Want anybody else but you

C
I don't, no I don't, no I don't, no I don't
G
No I don't, it's true
D
I don't, no I don't, no I don't, no I don't
             G/B           C
Want anybody else but you
G           D        
Oh-oh-oh-oh-oooooh

G/B     C      G           D
Call it magic, cut me into two
G/B               C         G             D
And with all your magic, I disappear from view
G/B             C              G     D
And I can't get over, can't get over you
G/B             C                    G        D     G/B
Still I call it magic, you're such a precious jewel

C
And I don't, no I don't, no I don't, no I don't
G
No I don't, it's true
D
I don't, no I don't, no I don't, no I don't
             G/B
Want anybody else but you

C
I don't, no I don't, no I don't, no I don't
G
No I don't, it's true
D
I don't, no I don't, no I don't, no I don't
             G/B           
Want anybody else but you

          C     G       D     G/B
I want to fall, fall so far
          C     G       D
I want to fall, fall so hard
      G/B      C     G       D
And I call it magic, call it true
G/B      C         G    D
I call it maaaaagic

G/B              C
Oh-oh-oh-oh-ooooh
G                D
Oh-oh-oh-oh-ooooh
G/B              C
Oh-oh-oh-oh-ooooh
G                D
Oh-oh-oh-oh-ooooh

           G/B     C                      G          D
And if you were to ask me, after all that we've been through
      G/B       C       G     D
Still believe in magic? Yes I do
G/B   C   G     D
Yes I do, yes I do
G/B   C   G           D    G/B
Yes I do, of course I do

OUTRO:
C - G - D - G/B
Tap to rate this tab
# A B C D E F G H I J K L M N O P Q R S T U V W X Y Z