Song name
# A B C D E F G H I J K L M N O P Q R S T U V W X Y Z

Coldplay - Major Minus tab

COLDPLAY – MAJOR MINUS

Made for acoustic guitar. Listen to the song for the strumming pattern.

Tuning is standard EADGBE. Although I prefer playing it in EADGGE.
****If you play it in EADGGE, always let your B string (which is now G) open!

Also, the 4times, 8times, etc. are just to help with the timing, since I didn’t 
calculated every strum. Enjoy :)

Intro & 1st Verse: Repeat 4 times

E|--0--0---0---0--0--|
B|--0--0---0---0--0--|
G|--9-/12--12--9--9--|(x2)
D|--9-/12--12--9--9--|
A|--7-/10--10--7--7--|
E|--0--0---0---0--0--|

    4times 4times
E|--0------0-----|
B|--0------0-----|
G|--0------7-----|
D|--5------9-----|
A|--7------9-----|
E|--5------7-----|


Bridge: Repeat 2 times
    4times 4times
E|--0------0----|
B|--0------0----|
G|--0------0----| (x2) then block the strings and strum couple of times
D|--2------7----|
A|--3------7----|
E|--3------5----|

Chorus: Repeat 2 times
    8 times 4 times 4 times
E|--0-------0-------0------|
B|--0-------0-------0------|
G|--0-------11------7------|
D|--14------12------9------|
A|--14------12------9------|
E|--12------10------7------|

Second Intro & Verse 2: Repeat 4 times

E|--0--0---0---0--0--|
B|--0--0---0---0--0--|
G|--9-/12--12--9--9--|(x2)
D|--9-/12--12--9--9--|
A|--7-/10--10--7--7--|
E|--0--0---0---0--0--|

    4times 4times
E|--0------0-----|
B|--0------0-----|
G|--0------7-----|
D|--5------9-----|
A|--7------9-----|
E|--5------7-----|


Bridge 2: Repeat 2 times
    4times 4times
E|--0------0----|
B|--0------0----|
G|--0------0----| (x2) then block the strings and strum couple of times
D|--2------7----|
A|--3------7----|
E|--3------5----|


Second Chorus:
    8 times 4 times 4 times
E|--0-------0-------0------|
B|--0-------0-------0------|
G|--0-------11------7------| (x2)
D|--14------12------9------|
A|--14------12------9------|
E|--12------10------7------|

    4 times 4 times
E|--0-------0----|
B|--8-------0----|
G|--9-------5----| (x2)
D|--10------7----|
A|--10------7----|
E|--8-------5----|


Instrumental part: Block the strings and do the strumming pattern

E|x-x-x-x-x-x-x-x-x-x-x-x-x-|
B|x-x-x-x-x-x-x-x-x-x-x-x-x-|
G|x-x-x-x-x-x-x-x-x-x-x-x-x-|  (For a while)
D|x-x-x-x-x-x-x-x-x-x-x-x-x-|
A|x-x-x-x-x-x-x-x-x-x-x-x-x-|
E|x-x-x-x-x-x-x-x-x-x-x-x-x-|

    4 times 4 times 8 times
E|--0-------0-------0---|
B|--0-------0-------8---|
G|--0-------11------9---| (x2)
D|--14------12------10--|
A|--14------12------10--|
E|--12------10------8---|

Solo:
    8 times 4 times 4 times
E|--0-------0-------0------|
B|--0-------0-------0------|
G|--0-------11------7------| (till the song ends)
D|--14------12------9------|
A|--14------12------9------|
E|--12------10------7------|
Tap to rate this tab
# A B C D E F G H I J K L M N O P Q R S T U V W X Y Z