Song name
# A B C D E F G H I J K L M N O P Q R S T U V W X Y Z

Coldplay - A Sky Full Of Stars tab

-------------------------------------------------------------------------------
                             A Sky Full of Stars - Coldplay
-------------------------------------------------------------------------------
Tabbed by:Connor Smith
E-mail:connorbetts-1995@hotmail.co.uk

Tuning:Standard

Capo on 2nd fret. This only applies to the chords throughout.

Chords throughout the piano intro until 1.17, You can play along with the rhythm if you wish.

Any improvements leave a message!

e|-0--------0---------0---------0---------------------------------------------|
B|-0--------0---------11--------0---------------------------------------------|
G|-9--------8---------11--------10--------------------------------------------|
D|-11-------9---------11--------11--------------------------------------------|
A|-11-------9---------9---------8---------------------------------------------|
E|-9--------7-----------------------------------------------------------------|

1.18-1:40 Capo on fret 2 for open notes

e|-0-0-0--0-0---0-0-0--0-0---0-0-0--0-0--0-0-0--0-0-|
B|-0-0-0--0-0---0-0-0--0-0---0-0-0--0-0--0-0-0--0-0-|
G|-111111-1111--8-8-8--8-8---111111-1111-101010-1010|
D|-131313-1313--9-9-9--9-9---111111-1111-111111-1111|
A|-131313-1313--9-9-9--9-9---9-9-9--9-9--8-8-8--8-8-|
E|-111111-1111--7-7-7--7-7--------------------------|

Lead

e|---------------------------------------------------------------------------|
B|---------------------------------------------------------------------------|
G|-11-11-11---13-13---16-16-16--16--16-15-15-15--15--15-13-13-13--13--13-----|
D|-x--x--x----x--x----x--x--x---x---x--x--x--x---x---x--x--x--x---x---x------|
A|-9--9--9----11-11---14-14-14--14--14-13-13-13--13--13-11-11-11--11--11-----|
E|---------------------------------------------------------------------------|x4

1:40-2:47 Capo on fret 2 for open notes

e|-0--0-0--0-0--0-0-0--0--0-0---0--0-0--0-0--0-0-0--0--0-0-------------------|
B|-0--0-0--0-0--0-0-0--0--0-0---0--0-0--0-0--0-0-0--0--0-0-------------------|
G|-11-1111-1111-111111-11-1111--8--8-8--8-8--8-8-8--8--8-8-------------------|
D|-13-1313-1313-131313-13-1313--9--9-9--9-9--9-9-9--9--9-9-------------------|
A|-13-1313-1313-131313-13-1313--9--9-9--9-9--9-9-9--9--9-9-------------------|
E|-11-1111-1111-111111-11-1111--7--7-7--7-7--7-7-7--7--7-7-------------------|

e|-0--0-0--0-0--0-0-0--0--0-0------------------------------------------------|
B|-0--0-0--0-0--0-0-0--0--0-0---0--0-0--0-0--0-0-0--0--0-0-------------------|
G|-11-1111-1111-111111-11-1111--10-1010 1010 101010 10-1010------------------|
D|-11-1111-1111-111111-11-1111--11-1111-1111-111111-11-1111------------------|
A|-9--9-9--9-9--9-9-9--9--9-9---8--8-8--8-8--8-8-8--8--8-8-------------------|
E|---------------------------------------------------------------------------|

1:56-2:12

e|---------------------------------------------------------------------------|
B|---------------------------------------------------------------------------|
G|---------------------------------------------------------------------------|
D|----4--------4-------4-------3---------------------------------------------|
A|-2-------2--------4-------4------------------------------------------------|
E|---------------------------------------------------------------------------|

2:12-2:49

e|--6-----9------6-----9--7--6--------------------------------------------------|
B|------------------------------------------------------------------------------|
G|------------------------------------------------------------------------------|
D|------------------------------------------------------------------------------|
A|------------------------------------------------------------------------------|
E|------------------------------------------------------------------------------|

2:49-3:20 Capo on fret 2 for open notes

e|-0-0-0--0-0---0-0-0--0-0---0-0-0--0-0--0-0-0--0-0-|
B|-0-0-0--0-0---0-0-0--0-0---0-0-0--0-0--0-0-0--0-0-|
G|-111111-1111--8-8-8--8-8---111111-1111-101010-1010|
D|-131313-1313--9-9-9--9-9---111111-1111-111111-1111|
A|-131313-1313--9-9-9--9-9---9-9-9--9-9--8-8-8--8-8-|
E|-111111-1111--7-7-7--7-7--------------------------|

Lead

e|-------14------13-14-------------------------------------------------------|
B|--14-----------------------------------------------------------------------|
G|---------------------------------------------------------------------------|
D|---------------------------------------------------------------------------|
A|---------------------------------------------------------------------------|
E|---------------------------------------------------------------------------|

e|---------------------------------------------------------------------------|
B|---------------------------------------------------------------------------|
G|-11-11-11---13-13---16-16-16--16--16-15-15-15--15--15-13-13-13--13--13-----|
D|-x--x--x----x--x----x--x--x---x---x--x--x--x---x---x--x--x--x---x---x------|
A|-9--9--9----11-11---14-14-14--14--14-13-13-13--13--13-11-11-11--11--11-----|
E|---------------------------------------------------------------------------|x4

e|---------------------------------------------------------------------------|
B|---------------------------------------------------------------------------|
G|-11-11-11---13-13---16-16-16--16--16-15-15-15--15--15-13-13-13--13--13-----|
D|-x--x--x----x--x----x--x--x---x---x--x--x--x---x---x--x--x--x---x---x------|
A|-9--9--9----11-11---14-14-14--14--14-13-13-13--13--13-11-11-11--11--11-----|
E|---------------------------------------------------------------------------|x4

3:03-3:20

e|-----14---13-14-------14---16-14------14--13-14-----14---16-13-------------|
B|--14---------------14--------------14------------14------------------------|
G|---------------------------------------------------------------------------|
D|---------------------------------------------------------------------------|
A|---------------------------------------------------------------------------|
E|---------------------------------------------------------------------------|

3:20-4:00 Capo on fret 2 for open notes

e|--0---------------0------------0-----------0-----------------------------------|
B|--2---------------4------------5-----------5-----------------------------------|
G|--2---------------4------------6-----------6-----------------------------------|
D|--2---------------4------------6-----------6-----------------------------------|
A|--0---------------2------------4-----------4-----------------------------------|
E|-------------------------------------------------------------------------------|

3:20-3:36

e|-----14---13-14-------14---16-14------14--13-14-----14---16-13-------------|
B|--14---------------14--------------14------------14------------------------|
G|---------------------------------------------------------------------------|
D|---------------------------------------------------------------------------|
A|---------------------------------------------------------------------------|
E|---------------------------------------------------------------------------|

3:36-4:00

e|-----14---13-14------14---16-14----14----13-14----14---16-13---------------|
B|--14---14---------14---14-------14----14--------14--14---------------------|
G|---------------------------------------------------------------------------|
D|---------------------------------------------------------------------------|
A|---------------------------------------------------------------------------|
E|---------------------------------------------------------------------------|

4:00

e|---------------------------------------------------------------------------|
B|--11--14-12-11---11--14---------11--14-12-11--11-14-12-11------------------|
G|------------------------13/15----------------------------------------------|
D|---------------------------------------------------------------------------|
A|---------------------------------------------------------------------------|
E|---------------------------------------------------------------------------|


************************************

| /   slide up
| \   slide down
| h   hammer-on
| p   pull-off
| ~   vibrato
| +   harmonic
| x   Mute note
| b   Bend
| pb  Pre-bend
| br  Bend release
| pbr Pre-bend release
| brb Bend release bend

************************************
Tap to rate this tab
 
# A B C D E F G H I J K L M N O P Q R S T U V W X Y Z