Coldplay - A Sky Full Of Stars tab

-------------------------------------------------------------------------------
                            A Sky Full Of Stars - Coldplay
-------------------------------------------------------------------------------
Tabbed by: darius1079
E-mail: dariusoon@gmail.com

Tuning: Standard

These are just Jonny's lead parts and fills throughout the song. 

1:18(EDM bit)
e|---------------------------------------------------------------------------|
B|---7--7--7/9--9/12--12--12--12--12\11--11--11--11--11\9--9--9--9--9\-------|
G|---------------------------------------------------------------------------|
D|---------------------------------------------------------------------------|
A|---------------------------------------------------------------------------|
E|---------------------------------------------------------------------------|

1:56(2nd Verse)
e|---------------------------------------------------------------------------|
B|---------------------------------------------------------------------------|
G|---------------------------------------------------------------------------|
D|---------------------------------------------------------------------------|
A|---6--9-------9-------9-------9----6--9-------9-------9-------9------------|
E|-----------9-------7-------6---------------9-------7-------6---------------|

2:13(Leading up to 2nd EDM bit)
e|---------------------------------------------------------------------------|
B|---11-----14-----11-----14--12--11-------------------14--12--11------------|
G|---------------------------------------------------------------------------|
D|---------------------------------------------------------------------------|
A|---------------------------------------------------------------------------|
E|---------------------------------------------------------------------------|

2:48(Really small bit here)
e|--------14--------13h14------------|
B|---14--------14--------------------|
G|-----------------------------------| (Goes back to EDM bit after this)
D|-----------------------------------|
A|-----------------------------------|
E|-----------------------------------|

2:50(Extra parts in second EDM bit)
e|-------14------13h14-------14-------13h14------14------16p13-----14--13h14-|
B|---14-------14----------14-------14---------14------14--------14---14------|
G|---------------------------------------------------------------------------|
D|---------------------------------------------------------------------------|
A|---------------------------------------------------------------------------|
E|---------------------------------------------------------------------------|

4:00(Ending bit)
e|--------------9--------------------------------9---------------------------|
B|------11-------------11--12p11---------11-------------11--12p11------------|
G|--11------11-----11----------------11------11-----11-----------------------|
D|---------------------------------------------------------------------------|
A|---------------------------------------------------------------------------|
E|---------------------------------------------------------------------------|

e|--------------9--------------------------------9---------------------------|
B|------11-------------11--12p11---------11-------------9/11-----------------|
G|--11------11-----11----------------11------11-----11-----------------------|
D|---------------------------------------------------------------------------|
A|---------------------------------------------------------------------------|
E|---------------------------------------------------------------------------|


That's all! All the licks are played with some delay. I'd say around 400ms? 
I'm not sure but if anyone has the exact number let me know!
Have fun and rock on! ;-)

P.S. Don't forget to rate, it only takes a few seconds!

************************************
WHAT DO ALL THE SIGNS MEAN???

| /   slide up
| \   slide down
| h   hammer-on
| p   pull-off
| ~   vibrato
| +   harmonic
| x   Mute note
| b   Bend
| pb  Pre-bend
| br  Bend release
| pbr Pre-bend release
| brb Bend release bend

************************************
Tap to rate this tab
 
# A B C D E F G H I J K L M N O P Q R S T U V W X Y Z