Guitaretab - guitar tabs
Song name
# A B C D E F G H I J K L M N O P Q R S T U V W X Y Z

Coldplay - One I Love Acoustic tab

----------------------------------------------------------------------------
	              ONE I LOVE (ACCOUSTIC) - Coldplay
----------------------------------------------------------------------------
Tabbed by: Andrew Muir
Email: andrew_muir69@hotmail.com

Tuning: 

e
A  <--- (tune down 2 semitones)
G
D
A
E

Intro: 

  Repeat this twice
e|---0--------------0---------------0---------------0----------------------|
A|---0--------------0---------------0---------------0----------------------|
G|---2--------------0---------------0---------------2----------------------|
D|---2--------------2---------------0---------------0----------------------|
A|---0--------------3---------------x--------------------------------------|
E|----------------------------------3--------------------------------------|

  Repeat this twice. Strum entire chords for a more accoustic feel.
e|--0-0-0-0-0-0-0-0-0-0-0-0-0-0-0-0-2-2-2-2-2-2-2-2-2-0--------------------|
A|--0---------------0---------------0---------------0----------------------|
G|--2---------------0---------------0---------------2----------------------|
D|--2---------------2---------------0---------------0----------------------|
A|--0---------------3---------------x--------------------------------------|
E|----------------------------------3--------------------------------------|
[ Tab from: http://www.guitaretab.com/c/coldplay/46592.html ]
Verse: Continue strumming, hitting bass notes as shown
e|--0-------------------------------0---------------0----------------------|
A|--0-------------------------------0---------------0----------------------|
G|--2-------------------------------2---------------2----------------------|
D|--2-------------------------------0---------------0----------------------|
A|--0-------------------------------x--------------------------------------|
E|--------------------------------0-3---2----------------------------------|

  Just go back and forth between the verse and chorus until you reach the end.
Then it changes to this:

Outro: Repeat twice
e|--0---------------0----------------0-------------------------------------|
A|--0---------------0----------------0-------------------------------------|
G|--0---------------0----------------2-------------------------------------|
D|--3---------------2----------------2-------------------------------------|
A|--3---------------2----------------0-------------------------------------|
E|--1---------------0------------------------------------------------------|


The strumming pattern changes a bit throughout the song. It's easy if you listen
to it. This version is arranged for an accoustic guitar, cause that's what I
figured it out on. Please let me know what you think of it!

  -Andrew Muir

| /  slide up
| \  slide down
| h  hammer-on
| p  pull-off
| ~  vibrato
| +  harmonic
| x  Mute note
============================================================================
Related for One I Love Acoustic tab
×
Best way to learn
"One I Love Acoustic"