Song name
# A B C D E F G H I J K L M N O P Q R S T U V W X Y Z

Coldplay - Moses Live tab

Help us improve GuitareTab! Take a short survey!
Moses by Coldplay
Tabbed by Snow 11/02/06

Probably not 100% accurate but as close as I can get

Main riff

E-12----12-11----------11-----11----11--12----12-11-----------------------|
B----12--------12--10------12----12--------12--------12------12----12-----|
G--------------------------------------------------------13-----13----13--|
D-------------------------------------------------------------------------|
A-------------------------------------------------------------------------|
E-------------------------------------------------------------------------|

E-----12----12-11----------11-----11----11--12----12-11--------------------|
B-12-----12--------12--10------12----12--------12--------12------12--------|
G------------------------------------------------------------13------11-13-|
D--------------------------------------------------------------------------|
A--------------------------------------------------------------------------|
E--------------------------------------------------------------------------|

E-------------------------------------------------------------------------|
B-12----------------------------------------------------------------------|
G----13-11----------------------------------------------------------------|
D-------------------------------------------------------------------------|
A-------------------------------------------------------------------------|
E-------------------------------------------------------------------------|

Not sure about the bridge

The solo at the end

E-19----19-19--------19------19-----19----19-----19--------19------19-----|
B----16--------16-17-----17------17----17----16------16-17-----17------17-|
G-------------------------------------------------------------------------|
D-------------------------------------------------------------------------|
A-------------------------------------------------------------------------|
E-------------------------------------------------------------------------|

E-19----19-----19--------21------21-----21----19-----19------19------19---|
B----17----16------16s19-----17------17----17----17------17------17-------|
G-------------------------------------------------------------------------|
D-------------------------------------------------------------------------|
A-------------------------------------------------------------------------|
E-------------------------------------------------------------------------|

E----19----17-------------------------------------------------------------|
B-17----17----------------------------------------------------------------|
G-------------------------------------------------------------------------|
D-------------------------------------------------------------------------|
A-------------------------------------------------------------------------|
E-------------------------------------------------------------------------|
Related for Moses Live tab