Song name
# A B C D E F G H I J K L M N O P Q R S T U V W X Y Z

Coldspell - Heading For Tomorrow tab

-----------------------------------------------------------------
Heading For Tomorrow (INTRO) - Coldspell
-----------------------------------------------------------------
Tabbed by: ikjetil
Email:
URL: http://www.coldspell.se/

e|---------------------------------------------------------------|
B|-----------------------------------------4/6-4-----------------|
G|---------------------------6/8-8-x-x---0-3/5-3-----------------|
D|--------------------8------6/8-8-x-x-4-------------------------|
A|-6-4-3---4-3------6-8--6-4-4/6-6-x-x---------------------------|
E|-------6-----6-4--4-6------------------------------------------|

e|---------------------------------------------------------------|
B|-----------4-----4-4-------------------------------------------|
G|-------------3/5---3--------------3-----6-6/8------------------|
D|-----x-3/5------------------------------------6----8-----------|
A|-6-8-x----------------6-8-x-x-4/6-----4----------6-8-----------|
E|-4-6------------------4-6-x-x-------4------------4-6-----------|

e|---------------------------------------------------------------|
B|---------------------------------------------------------------|
G|---------------------------------------------------------------|
D|---------------------------------------------------------------|
A|-6-4-3---4-3-----6---------------------------------------------|
E|-------6-----6-4---3-------------------------------------------|


Tablature Legend
----------------
 h   - hammer-on
 p   - pull-off
 b   - bend
 /\  - slide into or out of (from/to "nowhere")
Tap to rate this tab
 
# A B C D E F G H I J K L M N O P Q R S T U V W X Y Z