Song name
# A B C D E F G H I J K L M N O P Q R S T U V W X Y Z

Coldtears - Open Your Eyes tab

D|----------------------12h13-12h13-------------------------------|
A|---------------------------------13~-----------------10h13p10/8-|
F|-------14--14--14--14-----------------14--14--14--14------------|
C|-----15--15--15--15-----------------15--15--15--15--------------|
G|----------------------------------------------------------------|
C|----------------------------------------------------------------|

D|-----------|
A|--8h10p8/6~|
F|-----------|
C|-----------|
G|-----------|
C|-----------|

D|----------------------12h13-12h13--------------------8h10p8h10p8h10p8h10-|
A|---------------------------------13~-------------------------------------|
F|-------14--14--14--14-----------------14--14--14--14---------------------|
C|-----15--15--15--15-----------------15--15--15--15-----------------------|
G|-------------------------------------------------------------------------|
C|-------------------------------------------------------------------------|

D|----------------------12h13-12h13----------------------------------|
A|---------------------------------13~-----------------10h13p10/8h10-|
F|-------14--14--14--14-----------------14--14--14--14---------------|
C|-----15--15--15--15-----------------15--15--15--15-----------------|
G|-------------------------------------------------------------------|
C|-------------------------------------------------------------------|

D|----------------------12h13-12h13--------------------8h10p8h10p8h10p8h10|
A|---------------------------------13~------------------------------------|
F|-------14--14--14--14-----------------14--14--14--14--------------------|
C|-----15--15--15--15-----------------15--15--15--15----------------------|
G|------------------------------------------------------------------------|
C|------------------------------------------------------------------------|

Official Website: http://www.coldtears.se/
Tap to rate this tab
 
# A B C D E F G H I J K L M N O P Q R S T U V W X Y Z