Song name
# A B C D E F G H I J K L M N O P Q R S T U V W X Y Z

Coldworld - Stille tab

First off, i am not 100% sure how to play this song correctly, therefore i am posting 2 
of the song, with little altering in it. Secondly you need to let the notes really ring here.


|-----------------------------------------------|
|----10-------------10-----8------------------10|
|---------10p9-9------9/7---7/6--7--9--10-------|
|--------------10-------7-----7--9--9--12-------|
|--------------------------------------12-------|
|-----------------------------------------------|

and repeat.


HERE VERSION 2:


|-----------------------------------------------|
|----10-------------10-----8------------------10|
|---------10p9-9------9/7---7/6--7--9--10-------|
|--------------10-------7-----7--9--9--12-------|
|--------------------------------------12-------|
|--------------12-------10----9--10-12----------|


I really think theres something wrong here, so please if you have any corrections write 
in the comments section! Thanks.

Tabbed by martenc

martencorrigan@aol.com

ColdWorld on Metal-archives : http://www.metal-archives.com/band.php?id=57431
Tap to rate this tab
# A B C D E F G H I J K L M N O P Q R S T U V W X Y Z