Guitaretab - guitar tabs
Song name
# A B C D E F G H I J K L M N O P Q R S T U V W X Y Z

Cole Lloyd - Undressed tab

-------------------------------------------------------------------------------
			      	Undressed - T.S.O.L
-------------------------------------------------------------------------------
Tabbed by: Ryan Armstrong
Email:

Here's another one from divided we stand, just listen to the song to get 
it right.

Tuning: Standard
[ Tab from: http://www.guitaretab.com/c/cole-lloyd/3794.html ]
  Intro
e|--------------------------------------------|
B|--------------------------------------------|
G|--------------------------------------------|
D|-7-7-10-10/9-9-9-9-9-7-7-10-10/9-9-12-12-12-|
A|--------------------------------------------|
E|-5-5--8--8/7-7-7-7-7-5-5--8--8/7-7-10-10-10-|
  Verse
e|-----------------------------------------------------------------|
B|-----------------------------------------------------------------|
G|-----------------------------------------------------------------|
D|-7-7-7-7-7-7-7-7-5-5-5-5---------7-7-7-7-7-7-7-7-5-5-5-5-5-5-5-5-|
A|-5-5-5-5-5-5-5-5-3-3-3-3-5-5-5-5-5-5-5-5-5-5-5-5-3-3-3-3-5-5-5-5-|
E|-------------------------3-3-3-3-------------------------3-3-3-3-|
  Continued
e|-----------------------------------------------------------------|
B|-----------------------------------------------------------------|
G|-----------------------------------------------------------------|
D|-7-7-7-7-7-7-7-7-5-5-5-5-5-5-5-5-7-7-7-7-7-7-7-7-5-5-5-5-5-5-5-5-|
A|-5-5-5-5-5-5-5-5-3-3-3-3-5-5-5-5-5-5-5-5-5-5-5-5-3-3-3-3-5-5-5-5-|
E|-------------------------3-3-3-3-------------------------3-3-3-3-|
  Chorus
e|---------------------------------|
B|---------------------------------|
G|-5-5-5-5---------7-7-7-7-7-7-7-7-|play
D|-5-5-5-5-5-5-5-5-7-7-7-7-7-7-7-7-|x2
A|-3-3-3-3-5-5-5-5-5-5-5-5-5-5-5-5-|
E|---------3-3-3-3-----------------|
  Pre verse
e|--------------------------------------------|
B|--------------------------------------------|
G|--------------------------------------------|
D|-7-7-10-10/9-9-9-9-9-7-7-10-10/9-9-12-12-12-|
A|--------------------------------------------|
E|-5-5--8--8/7-7-7-7-7-5-5--8--8/7-7-10-10-10-|
  Verse
e|-----------------------------------------------------------------|
B|-----------------------------------------------------------------|
G|-----------------------------------------------------------------|
D|-7-7-7-7-7-7-7-7-5-5-5-5---------7-7-7-7-7-7-7-7-5-5-5-5-5-5-5-5-|
A|-5-5-5-5-5-5-5-5-3-3-3-3-5-5-5-5-5-5-5-5-5-5-5-5-3-3-3-3-5-5-5-5-|
E|-------------------------3-3-3-3-------------------------3-3-3-3-|
  Continued
e|-----------------------------------------------------------------|
B|-----------------------------------------------------------------|
G|-----------------------------------------------------------------|
D|-7-7-7-7-7-7-7-7-5-5-5-5-5-5-5-5-7-7-7-7-7-7-7-7-5-5-5-5-5-5-5-5-|
A|-5-5-5-5-5-5-5-5-3-3-3-3-5-5-5-5-5-5-5-5-5-5-5-5-3-3-3-3-5-5-5-5-|
E|-------------------------3-3-3-3-------------------------3-3-3-3-|
  Chorus
e|---------------------------------|
B|---------------------------------|
G|-5-5-5-5---------7-7-7-7-7-7-7-7-|play
D|-5-5-5-5-5-5-5-5-7-7-7-7-7-7-7-7-|x2
A|-3-3-3-3-5-5-5-5-5-5-5-5-5-5-5-5-|
E|---------3-3-3-3-----------------|
  Continued
e|-----------------------------------------------------------------|
B|-----------------------------------------------------------------|
G|-9-9-9-9-5-5-5-5---------7-7-7-7-9-9-9-9-5-5-5-5-----------------|
D|-9-9-9-9-5-5-5-5-5-5-5-5-7-7-7-7-9-9-9-9-5-5-5-5-5-5-5-5-5-5-4-4-|
A|-7-7-7-7-3-3-3-3-5-5-5-5-5-5-5-5-7-7-7-7-3-3-3-3-5-5-5-5-5-5-4-4-|
E|-----------------3-3-3-3-------------------------3-3-3-3-3-3-2-2-|
  Continued
e|-----------------------------------------------------------------|
B|-----------------------------------------------------------------|
G|-9-9-9-9-5-5-5-5---------7-7-7-7-9-9-9-9-5-5-5-5-----------------|
D|-9-9-9-9-5-5-5-5-5-5-5-5-7-7-7-7-9-9-9-9-5-5-5-5-5-5-5-5-5-5-5-5-|
A|-7-7-7-7-3-3-3-3-5-5-5-5-5-5-5-5-7-7-7-7-3-3-3-3-5-5-5-5-5-5-5-5-|
E|-----------------3-3-3-3-------------------------3-3-3-3-3-3-3-3-|
  Pre verse
e|--------------------------------------------|
B|--------------------------------------------|
G|--------------------------------------------|
D|-7-7-10-10/9-9-9-9-9-7-7-10-10/9-9-12-12-12-|
A|--------------------------------------------|
E|-5-5--8--8/7-7-7-7-7-5-5--8--8/7-7-10-10-10-|
  Verse
e|-----------------------------------------------------------------|
B|-----------------------------------------------------------------|
G|-----------------------------------------------------------------|
D|-7-7-7-7-7-7-7-7-5-5-5-5-5-5-5-5-7-7-7-7-7-7-7-7-5-5-5-5-5-5-5-5-|
A|-5-5-5-5-5-5-5-5-3-3-3-3-5-5-5-5-5-5-5-5-5-5-5-5-3-3-3-3-5-5-5-5-|
E|-------------------------3-3-3-3-------------------------3-3-3-3-|
  Chorus
e|---------------------------------|
B|---------------------------------|
G|-5-5-5-5---------7-7-7-7-7-7-7-7-|play
D|-5-5-5-5-5-5-5-5-7-7-7-7-7-7-7-7-|x3
A|-3-3-3-3-5-5-5-5-5-5-5-5-5-5-5-5-|
E|---------3-3-3-3-----------------|
  Finish on
e|------|
B|------|
G|--5---|
D|--5---|
A|--3---|
E|------|

Thats it, its a fun one and i hope you enjoy it i'll see ya later.

| /  slide up
| \  slide down
| h  hammer-on
| p  pull-off
| ~  vibrato
| +  harmonic
| x  Mute note
===============================================================================
Related for Undressed tab