Song name
# A B C D E F G H I J K L M N O P Q R S T U V W X Y Z

Colfax - Strange Acquaintance tab

-------------------------------------------------------------------------------
                             STRANGE ACQAUINTANCE - Colfax
-------------------------------------------------------------------------------

Tuning: D Standard

Intro (Rhythm)
D|---------------------------------|
A|---------------------------------|
F|---------------------------------|
C|---666666-666666-222222-222222---|
G|---666666-666666-222222-222222---|
D|---444444-444444-000000-000000---|

Intro (Lead)
D|-----------------------------------9--------------------------------|
A|-------------7----7--7--7--7--7--7---10-----------------------------|
F|---6-6-6-8-9-9b11-11-11-11-11-11-11-----11-11/13-11-9~------9-------|
C|--------------------------------------------------------/11---11~---|
G|--------------------------------------------------------------------|
D|--------------------------------------------------------------------|

D|----------------0-----------------------4-4/5p4-----|
A|---4/6-6-6----4---4/6-4-2~--4/6-6-----4---------5---|
F|-----------6------------------------6---------------|
C|----------------------------------6-----------------|
G|----------------------------------------------------|
D|----------------------------------------------------|

Verse
D|-----------------------------------------------|
A|-----------------------------------------------|
F|-----------------------------------------------|
C|---------------------------------4-4-----------|
G|---------------------------5h666-----6-6-4-----|
D|---2h4-4-4442h44-444--2-44-----------------4---|

Pre Chorus
D|------------------------------------------|
A|------------------------------------------|
F|------------------------------------------|
C|---99999999-999999998-44444444-44444444---|
G|---66666666-666666698-22222222-44444444---|
D|---44444444-444444476-22222222-22222222---|

Chorus
D|---------------------------------------------------------------|
A|---------------------------------------------------------------|
F|---------------------4444-------------------4444---------------|
C|---xxxx-6-6-xxx-2222-4444-4444-6-6-xxx-2222-4444---------------|
G|---xxxx-6-6-xxx-2222-2222-4444-6-6-xxx-2222-2222-2-4p2-1-------|
D|---xxxx-6-6-xxx-2222------4444-6-6-xxx-0000--------------4-2---|

D|----------------------------------------------|
A|----------------------------------------------|
F|----------------4444--------------------------|
C|---6-6-xxx-2222-4444-4444-6-6-xxx-2222-4444---|
G|---6-6-xxx-2222-2222-4444-6-6-xxx-2222-4444---|
D|---4-4-xxx-0000------2222-4-4-xxx-0000-2222---|

Post-Chorus Solo (Rhythm)
D|---------------------------------|
A|---------------------------------|
F|---------------------------------|
C|---666666-666666-222222-222222---|
G|---666666-666666-222222-222222---|
D|---444444-444444-000000-000000---|

Post-Chorus Solo (Lead)
D|-----------------------------------9--------------------------------|
A|-------------7----7--7--7--7--7--7---10-----------------------------|
F|---6-6-6-8-9-9b11-11-11-11-11-11-11-----11-11/13-11-9~------9-------|
C|--------------------------------------------------------/11---11~---|
G|--------------------------------------------------------------------|
D|--------------------------------------------------------------------|

D|----------------0-----------------------4-4/5p4-----|
A|---4/6-6-6----4---4/6-4-2~--4/6-6-----4---------5---|
F|-----------6------------------------6---------------|
C|----------------------------------6-----------------|
G|----------------------------------------------------|
D|----------------------------------------------------|

Verse B
D|---------------------------------------------|
A|---------------------------------------------|
F|---------------------------------------------|
C|---------------------------------------------|
G|---4---6-------------------4---6-------------|
D|------3--0h3h4p3-0-3-4-4------3--0-3h4--4~---|

D|----------------------------------------------|
A|----------------------------------------------|
F|----------------------------------------------|
C|----------------------------------------------|
G|---4---6-------------------4---6--------------|
D|------3--0h3h4p3-0-3-4-4------3--0-3h4-3-2~---|

D|----------------------------------------------|
A|----------------------------------------------|
F|----------------------------------------------|
C|---4---6-------------------4---6--------------|
G|------5--0h5h6p5\2/5-6-6------5--0-5-6-5-4~---|
D|----------------------------------------------|

D|---------------------------------------------|
A|---------------------------------------------|
F|---------------------------------------------|
C|---------------------------------------------|
G|---4---6-------------------4---6-------------|
D|------3--0h3h4p3-0-3-4-4------3--0-3-4-3-4---|

Verse B Ending Riff
D|----------------------------------------------------------------|
A|----------------------------------------------------------------|
F|----------------------------------------------------------------|
C|--------------------------------------------------------0-------|
G|-----------4h5-4--------------4h5-4-------------4h5-4-----4-----|
D|---0-2-3-4-------4----0-2-3-4-------4---0-2-3-4-------4-----4---|

Bridge (Rhythm)
D|---------------------------------------|
A|---------------------------------------|
F|---------------------------------------|
C|-----6---6---6---6\5/6-6---6---6-644---|
G|---666-666-666-666\5/666-666-666-644---|
D|---444-444-444-444\3/444-444-444-422---|
     ..  ..  ..  ..     .  ..  ..  

Bridge (Lead)
D|---00000000-0000000-0000000-------0-------0-------|
A|---55555555-4444445-2222222-0-1-2-2-0-1-2-2-1-0---|
F|--------------------------------------------------|
C|--------------------------------------------------|
G|--------------------------------------------------|
D|--------------------------------------------------|

D|---00000000-0000000-0000000-000000------------------------------|
A|---55555555-4444445-2222222-33333b-(gradual bend to 4th fret)---|
F|----------------------------------------------------------------|
C|----------------------------------------------------------------|
G|----------------------------------------------------------------|
D|----------------------------------------------------------------|

Interlude
D|------------------------------------------------------|
A|------------------------------------------------------|
F|------------------------------7/888-11-11--8888-6-----|
C|---4-/6-6-666-4-/66-666--4-66-7/888-11-11--8888-6-6---|
G|---4-/6-6-666-4-/66-666--4-66-5/666-9--9---6666-4-6---|
D|---2-/4-4-444-2-/44-444--2-44---------------------4---|

D|-----------------------------------------------------|
A|-----------------------------------------------------|
F|------------------------------7/888-11-11--8888-6----|
C|---4-/6-6-666-4-/66-666--4-66-7/888-11-11--8888-6----|
G|---4-/6-6-666-4-/66-666--4-66-5/666-9--9---6666-4----|
D|---2-/4-4-444-2-/44-444--2-44------------------------|

Interlude B
D|-----------------------------------|
A|-----------------------------------|
F|-----------------------------------|
C|-----------------------------------|
G|--------------/6---4---3h4p3-------|
D|---2-2-4-2-4-----4---4-------4-2---|

D|-----------------------------------|
A|-----------------------------------|
F|-----------------------------------|
C|-----------------------------4h6---|
G|--------------/6---4---4-5-6-------|
D|---2---4-2-4-----4---4-------------|

D|-----------------------------------|
A|-----------------------------------|
F|-----------------------------------|
C|-----------------------------------|
G|--------------/6---4---3h4p3-------|
D|---2-2-4-2-4-----4---4-------4-2---|

D|--------------------------------------|
A|--------------------------------------|
F|--------------------------------------|
C|--------------------------------------|
G|--------------/6---4---3h4p3----------|
D|---2-2-4-2-4-----4---4-------4-2-4~---|

************************************

| /   slide up
| \   slide down
| h   hammer-on
| p   pull-off
| ~   vibrato
| +   harmonic
| x   Mute note
| b   Bend
| pb  Pre-bend
| br  Bend release
| pbr Pre-bend release
| brb Bend release bend

************************************

Website: www.colfaxrock.com
facebook: www.facebook.com/colfaxrock
youtube: www.youtube.com/colfaxrock
twitter: @colfaxrock
Soundcloud: www.soundcloud.com/colfaxrock

************************************
Tap to rate this tab
 
# A B C D E F G H I J K L M N O P Q R S T U V W X Y Z