Colin Hay - Circles Erratica tab

-------------------------------------------------------------------------------
			     Circles Erratica - Colin Hay
-------------------------------------------------------------------------------
Album: Going Somewhere
Tabbed by: Nick Adams
Email: na277@st-andrews.ac.uk

I've tabbed the resonator guitar, which is in drop d, and left out the
rhythm guitar. As with most of Colin Hay's music the strumming varies from
repeat to repeat, so I've just tabbed a general framework and you'll probably
going to want to need to listen to the song a few times.
Post suggestions/comments if you wish... 

Tuning: Drop D

Intro                                                         (x2)
E|---------||--------------------|--------------------------------||
B|---------||o-------------------|-------------------------------o||
G|---------||--------------------|--------------------------------||
D|-(0)-(0)-||--7h9p7-5h7p5-4-----|--------0-------------(0)--0----||
A|--0---0--||o---------------7-5-|--2--3--3----0h2p20----0---0---o||
D|--0---0--||--------------------|--------0-----------5--0---0----||

Coming out of intro
e|----------------|
B|----------3--3--|
G|----------2--2--|
D|-(0)-(0)--0--0--|
A|--0---0---0--0--|
D|--0---0---0--0--|
            d  u 

Verse                                                        (x2)
e||---------------------------|---------------------------------||
B||o--------------------------|--------------------------------o||
G||--------------------0----0-|---------0-----------------------||
D||---0----------0----(0)--(0)|---0----(0)----------0-----------||
A||o-(4)-2--0----0--2--3----3-|---0--2--3---0-0----(0)-(0)-(2)-o||
D||------0--------------------|------------------0--0-----------||


e|----------------|------------------|----------------|---------|------------|
B|----------------|------------------|----------------|---------|------------|
G|----------------|------------------|----------------|---------|------------|
D|--0-------0--0--|-----------(0)-(0)|---0-------0--0-|-------0-|-------0----|
A|--0----2--3--3--|---2--3-----0---0-|---0----2--3--3-|--0-2--3-|--0-2--3----|
D|----------0--0--|---------5--0---0-|-----------0--0-|---------|------------|

Coming out of verse
e|------------------|
B|-3--3-(let-ring)--|
G|------------------|
D|-0--0-------------|
A|-3--3----2--------|
D|------------5-----|

Intro 2                                                          (x2)
E|---------||--------------------|----------------------------------||
B|---------||o-------------------|----------3-3--------------------o||
G|---------||--------------------|----------0-0---------------------||
D|-(0)-(0)-||--7h9p7-5h7p5-4-----|--------0-0-0-----------(0)--0----||
A|--0---0--||o---------------7-5-|--2--3--3-3-3--0h2p20----0---0---o||
D|--0---0--||--------------------|--------0-0-0---------5--0---0----||

e|----------------|
B|----------3--3--|
G|----------2--2--|
D|-(0)-(0)--0--0--|
A|--0---0---0--0--|
D|--0---0---0--0--|
            d  u 

Verse 2      
e|--------------------------|---------------------------------------|
B|--------------------------|-----------------------------------3-3-|
G|-------------------0----0-|---------0---------------------0-0-0-0-|
D|--0----------0----(0)--(0)|---0----(0)----------0---------0-0-0-0-|
A|--5--2--0----0--2--3----3-|---0--2--3---0-0-----0--0-2-0--0-0-0-0-|
D|-----0--------------------|------------------0--0-----------0-0-0-|
                                                            d u d u 
Strumming becomes more pronounced and frequent
e|--------------------------|------------------------------|
B|-------------------3----3-|---3--3--3---3-3----------3-3-|
G|-------------------0----0-|---------0--------------0-0-0-|
D|--0----------0----(0)--(0)|---0----(0)----------0--0-0-0-|
A|--5--2--0----0--2--3----3-|---0--2--3---0-0-----0--0-0-0-|
D|-----0--------------------|------------------5--0--0-0-0-|

Strumming relaxes 
e|----------------|------------------|----------------|---------|------------|
B|----------1--1--|------------3---3-|----------------|---------|------------|
G|----------------|------------------|----------------|---------|------------|
D|--0-------0--0--|-----------(0)-(0)|---0-------0--0-|-------0-|-------0----|
A|--0----2--3--3--|---2--3-----0---0-|---0----2--3--3-|--0-2--3-|--0-2--3----|
D|----------0--0--|---------5--0---0-|-----------0--0-|---------|------------|

e|------------------|
B|-3--3-(let-ring)--|
G|------------------|
D|-0--0-------0-----|
A|-3--3----2--0-----|
D|------------0-----|


Solo/instrumental - Not particularly accurate, use as a guide when listening
                                                                          (x3)
e|-------||--0-0--0-0-|--0--0--0---0-0---0--0-0--0-0-0-0--0-0--0-0---0------||
B|----(0)||o-7-7--7-7-|--10/12\10--8-7-7-8--7-7--7-7-7-8--5-3--3-3---3h5---o||
G|-----0-||--0-0--0-0-|--0--0--0---0-0---0--0-0--0-0-0-0--0-0--0-0---0------||
D|--0--0-||-----------|-----------------------------------------------------||
A|--0----||o-0-0------|---------------------0-0--0-0-0-0--0-0--0-0---------o||
D|--0----||--0-0------|---------------------0-0--0-0-0-0--0-0--0-0----------||

                      (x3)
E||--0-0--0-0---0---0--||
B||o-3-3--3-3---3h5-3-o||
G||--0-0--0-0---0---0--||
D||--------------------||
A||o------------------o||
D||--------------------||

Intro 3
E|---------||--------------------|----------------------------------||
B|---------||o-------------------|----------3-3--------------------o||
G|---------||--------------------|----------0-0---------------------||
D|-(0)-(0)-||--7h9p7-5h7p5-4-----|--------0-0-0-----------(0)--0----||
A|--0---0--||o---------------7-5-|--2--3--3-3-3--0h2p20----0---0---o||
D|--0---0--||--------------------|--------0-0-0---------5--0---0----||

e|----------------|
B|----------3--3--|
G|----------2--2--|
D|-(0)-(0)--0--0--|
A|--0---0---0--0--|
D|--0---0---0--0--|
            d  u 

Verse 3
                                                             (x2)
e||--------------------------|-------------------------------||
B||o------------------3----3-|---3--3--3---3-3----------3-3-o||
G||-------------------0----0-|---------0--------------0-0-0--||
D||--0----------0----(0)--(0)|---0----(0)----------0--0-0-0--||
A||o-5--2--0----0--2--3----3-|---0--2--3---0-0-----0--0-0-0-o||
D||-----0--------------------|------------------5--0--0-0-0--||


e|----------------|------------------|---------------|
B|----------3--3--|----------------3-|------3--3-3---|
G|----------------|------------------|---------------|
D|--0-------0--0--|-----------(0)-(0)|--0---0--0-0---|
A|--0----2--3--3--|---2--3-----0---0-|--0h2-0--0-0---|
D|----------0--0--|---------5--0---0-|--0---0--0-0---|

e|----------------|---------------------------------------|
B|----------3--3--|-----3-------3-------3-------3-------3-|
G|----------------|---------------------------------------|
D|--0-------0--0--|-----0-------0-------0-------0-------0-|
A|--0----2--3--3--|-0-2-3---0-2-3---0-2-3---0-2-3---0-2-3-|
D|----------0--0--|---------------------------------------|

e|---------------|
B|--------3------|
G|--------0------|
D|--------0------|
A|-2-0----0------|
D|-----5--0------|

E|---------||--------------------|------------------------------------|
B|---------||o-------------------|----------3-3-------3---------------|
G|---------||--------------------|----------0-0-------0---------------|
D|-(0)-(0)-||--7h9p7-5h7p5-4-----|--------0-0-0-------0-------0-------|
A|--0---0--||o---------------7-5-|--2--3--3-3-3---3-3-3---3-3-3--3--3-|
D|--0---0--||--------------------|--------0-0-0-----------------------|

e|-------------------------|
B|--------------(3)-(3)----|
G|--------------(0)-(0)----|
D|-----------0--(0)-(0)--0-|
A|--0h2p0----0-----------0-|
D|--------3--0-----------0-|

************************************

| /   slide up
| \   slide down
| h   hammer-on
| p   pull-off
| ~   vibrato
| +   harmonic
| x   Mute note
| b   Bend
| pb  Pre-bend
| br  Bend release
| pbr Pre-bend release
| brb Bend release bend
| d   Down-stroke
| u   Up-stroke
************************************

Tap to rate this tab
 
# A B C D E F G H I J K L M N O P Q R S T U V W X Y Z