Song name
# A B C D E F G H I J K L M N O P Q R S T U V W X Y Z

Colin Hay - Maggie tab

Start: Bass

Below is the main riff in the verses.

-|---------------------------------|
-|---------------------------------|
-|---------------------------------|
-|----1-1-----1-1-----1-1--3-3-----|
-|5-5-3-3-5-5-3-3-5-5-3-3--5-5-3-3-|
-|3-3-----3-3-----3-3----------5-5-|

Chorus:

-|---------------------------------------|
-|---------------------------------------|
-|---------------------------------------|
-|7-7-7-7-7-7-7-7-7-7-7-7/5-5-5/3-3  X 3-|
-|5-5-5-5-5-5-5-5-5-5-5-5/3-3-3/1-1------|
-|---------------------------------------|

-|--------------------------------------|
-|--------------------------------------|
-|--------------------------------------|
-|7-7-7-7-7-7-7-7-7-7-7-7/5-5-5/3-3-3-3-|
-|5-5-5-5-5-5-5-5-5-5-5-5/3-3-3/1-1-1-1-|
-|--------------------------------------|

Solo.

This is done purely by ear so please excuse mistakes.

-|------------------------------------------------------------------------|
-|------------------------------------------------------------------------|
-|15-15-15-15-15-15-15-15-15-14-15-15-15-15-15-14-15-15-15-15-15-15-15-15-|
-|------------------------------------------------------------------------|
-|------------------------------------------------------------------------|
-|------------------------------------------------------------------------|

-|--------------------------------------------12b----------------------|
-|-----------------------------------------------12b-11p12p11p12p11p12-|
-|14-15-15-15-15-15-15-14-15-14-15-14-15-14-15-------------------------|
-|---------------------------------------------------------------------|
-|---------------------------------------------------------------------|
-|---------------------------------------------------------------------|
Tap to rate this tab
# A B C D E F G H I J K L M N O P Q R S T U V W X Y Z