Song name
# A B C D E F G H I J K L M N O P Q R S T U V W X Y Z

Colin Hay - Boy Boy tab

From the Peaks and Valleys album. Tis a song about a dog.

  Boy   was   a  dog   he   was   my   friend
e|-0-----2----4---5----4-----2----0------2---------------------------------------------|
B|---------------------------------------3---------------------------------------------|
G|---------------------------------------4---------------------------------------------|
D|---------------------------------------4---------------------------------------------|
A|---------------------------------------2---------------------------------------------|
E|---------------------------------------x---------------------------------------------|

    And  in the end I lost him
e|---0----2--4---5--4---2---7---(7----------------------)----------|
B|------------------------------(9----------------------)----------|
G|------------------------------(9--after the first time)----------|
D|------------------------------(9----------------------)----------|
A|------------------------------(7----------------------)----------|
E|-----------------------------------------------------------------|

   Sail   on       Sail  on  then     my   boy   friend
e|--9-----7----------9----2----7------2--------0--------------------------------------|
B|--9-----9----------9----2----9------2--------0--------------------------------------|
G|--7-----9----------7----2----9------2--------1--------------------------------------|
D|--8-----9----------8----4----9------4--------2--------------------------------------|
A|--8-----7----------8----4----7------4--------2--------------------------------------|
E|--9----------------9----2-----------2--------0--------------------------------------|


The rest of the song goes the same way. Comment if you have one.
Tap to rate this tab
 
# A B C D E F G H I J K L M N O P Q R S T U V W X Y Z