Song name
# A B C D E F G H I J K L M N O P Q R S T U V W X Y Z

Colin James - Just Came Back tab

Help us improve GuitareTab! Take a short survey!
COLIN JAMES
JUST CAME BACK


Tuning: OPEN G (all guitars)

as this song has a lot of improv, i am going to give chords only, for fills either make 
up yourselve, or figure them out.
also, make note of the fact that the main riff is just that...its verse, interlude intro...

so here are the basics and have fun!!

intro (on steel guitar)
e|--------------------------------------------|
B|----------/7--0---5----7-7-5----------/7----|
G|--77665544/7--0---5----7-7-5--77665544/7----|
D|----------/7--0---5----7-7-5----------/7----|
A|----------/7--0---5----7-7-5----------/7----|
E|--------------------------------------------|

main riff (distorted guitar)
e|--------------------------------------------------|
B|--------------------------------------------------|
G|--------------------------------------------------|
D|-----------0-----------0-0--0-0--0---0-2----------|
A|-2-2---2---0-2-2---2---0-0--0-0--0---0-2---2------|
E|-0-0-3-0-3---0-0-3-0-3-------------3-----3-0------|

chorus
e|----------------------|
B|----------------------|
G|-----765--230--2------|
D|-----765--230--2------|
A|-2---765--230--0---2--|
E|-0---------------3-0--|


e|----------------------------|
B|----------------------------|
G|-------2-2-2-------2-2-2----|
D|-------2-2-2-------2-2-2----|
A|-4-4-4-2-2-2-4-4-4-2-2-2----|
E|-2-2-2-------2-2-2----------|

e|-------------------------------|
B|-------------------------------|
G|-------987-7-7--2-2-2--0-0-----|
D|-------987-7-7--2-2-2--0-0-----|
A|-4-4-4-987-7-7--2-2-2--0-0-----|
E|-2-2-2-------------------------|
Related for Just Came Back tab