Guitaretab - guitar tabs
Song name
# A B C D E F G H I J K L M N O P Q R S T U V W X Y Z

Colin Meloy - Charlie tab

I tabbed this out listening to the live show, which is rocky, i don't think it quite 
with the original song from the TV show.

Rawr85,

Intro,
|---------------------------|
|---------------------------|
|---------------------------|
|---7-8-7-8-78--------------|
|---------------------------| Repeat this until the bass comes in, then you
|---------------------------| switch to powerchords. shown below.

[ Tab from: http://www.guitaretab.com/c/colin-meloy/149034.html ]
|---------------------------|
|---------------------------|
|---------------------------|
|--7-8-7-8-78---------------|
|--7-8-7-8-78---------------| This is the main riff. and is repeated.
|--5-6-5-6-56---------------|


|---------------------------|
|---------------------------|
|---------------------------|
|---77-8~-------77-8~-------|
|---77-8~-------77-8~-------|
|---55-6~-------55-6~-------|

 These are the 3 parts to the song. I think these are the only parts played,although the 
guitar solos over the whole song.
Its just a a basic tab to give you an idea of the song.
Related for Charlie tab