Song name
# A B C D E F G H I J K L M N O P Q R S T U V W X Y Z

Colin Reid - The Addams Family tab

Help us improve GuitareTab! Take a short survey!
------------------------------------------------------------------------------------------
		     THE ADDAMS FAMILY - COLIN REID
------------------------------------------------------------------------------------------

By:BOSTOCK

THIS IS SO MUCH FUN TO PLAY AND ONCE UVE MASTERED IT, ITS FREGIN EASY!... CHECK IT..

e|---------------------------------------------------------------------------|
B|---------------------------------------------------------------------------|
G|---------------------------------------------------------------------------|
D|---------------------------------------------------------------------------|  X 2
A|-------0---------2---------------------------------------------------------|
E|-0H2H4----0H2H4------------------------------------------------------------|

e|-4-4-4----0-5-9-5-----7---0-4-7-4-0---5------------------------------------|
B|-0-0-0------------7-3---------------2--------------------------------------|
G|---------------------------------------------------------------------------|
D|---------------------------------------------------------------------------|
A|---------------------------------------------------------------------------|
E|---------------------------------------------------------------------------|

e|-0-5-9-5-----7-----0-4-----4-5---------------------------------------------|
B|---------7-3-----------5-7-------------------------------------------------|
G|---------------------------------------------------------------------------|
D|---------------------------------------------------------------------------|
A|---------------------------------------------------------------------------|
E|---------------------------------------------------------------------------|


BORING TO HEAR..... FUN TO PLAY...... ROCK ON
Related for The Addams Family tab