Song name
# A B C D E F G H I J K L M N O P Q R S T U V W X Y Z

Colin Walsh - Save Our Sins tab

                    COLIN WALSH-SAVE OUR SINS
                    IRONMAIDENS_666@HOTMAIL.COM

       THIS IS DA SONG I MADE UP HOPE U LIKE IT DERS NO SOLO BUT EMAIL ME IF U LIKE IT


                                                                    5 TIMES
e|--------------------------------------------------------------------------|
B|--------------------------------------------------------------------------|
G|--------------------------------------------------------------------------|
D|-------9-----------7--------------5----------5-7---7-9--------------------|
A|-------7-----------5--------------3----------3-5---5-7--------------------|
E|---0 0-------------0 0-----------0 0-------------0 0----------------------|

                                                            2 TIMES
e|---------------------------------------------------------------------|
b|---------------------------------------------------------------------|
g|---------------------------------------------------------------------|
D|----------9---------10---------------7---------8---------------------|
A|----------7----------8---------------5---------6---------------------|
E|--0-0-0-0----0-0-0-0--------0-0-0-0-----0-0-0-0----------------------|

                                                interlude
e|----------------------------------------------------------------------|
b|----------------------------------------------------------------------|
g|----------------------------------------------------------------------|
D|-------7-6-----6--5-----5-4----4--3-----------------------------------|
A|-------7-6-----6--5-----5-4----4--3-----------------------------------|
E|---0-0-----0 0-------0-0----0-0---------------------------------------|
Tap to rate this tab
# A B C D E F G H I J K L M N O P Q R S T U V W X Y Z