Guitaretab - guitar tabs
Song name
# A B C D E F G H I J K L M N O P Q R S T U V W X Y Z

Collapsed Lung - Eat My Goal tab

-------------------------------------------------------------------------------
			    Eat My Goal - Collapsed Lung
-------------------------------------------------------------------------------
Tabbed by:Bexerwolf
Email: bexandtoby@hotmail.com

Tuning: Usual eBGDAE

Main Tune
e|---------------------------------------------------------------------------|
B|---------------------15--12--17--17-----15--12--17--17---------------------|
G|---------------------------------------------------------------------------|
D|---------------------------------------------------------------------------|
A|---------------------------------------------------------------------------|
E|---------------------------------------------------------------------------|


Play this at 0:04
e|---------------------------------------------------------------------------|
B|------------7--------------------------------------------------------------|
G|-------------7-------------------------------------------------------------|
D|----7------7---------------------------------------------------------------|
A|---7-7----5----------------------------------------------------------------|
E|--5------------------------------------------------------------------------|
[ Tab from: http://www.guitaretab.com/c/collapsed-lung/74621.html ]
The main tune stops and the chord picking is played a couple of times, then this stops 
0:28 to 1:00


Chorus:

e|---------------------------------------------------------------------------|
B|---------------------15--12--17--17-----15--12--17--17---------------------|
G|---------------------------------------------------------------------------|
D|---------------------------------------------------------------------------|
A|---------------------------------------------------------------------------|
E|---------------------------------------------------------------------------|


e|---------------------------------------------------------------------------|
B|------------7--------------------------------------------------------------|
G|-------------7-------------------------------------------------------------|
D|----7------7---------------------------------------------------------------|
A|---7-7----5----------------------------------------------------------------|
E|--5------------------------------------------------------------------------|

This is pretty much the whole song! Nearer the end just carrying on playing the Chorus, 
only time you don't play is during the verses.

| /  slide up
| \  slide down
| h  hammer-on
| p  pull-off
| ~  vibrato
| +  harmonic
| x  Mute note
===============================================================================
Advertisement will be closed in 10 seconds