Song name
# A B C D E F G H I J K L M N O P Q R S T U V W X Y Z

Collapsed - Syntax Error tab

http://collapsedband.webs.com/
Intro:Guitar 1 play twice(Clean channel)

|---------------------------------------------------------|
|---------------------------------------------------------|
|------------------------------------------4-----4--------|
|------2-----2-----5-----5-----4-----4---4-----4----------|
|----2-----2-----5-----5-----4-----4---2-----2------------|
|--0-----0-----3-----3-----2-----2------------------------|
Guitar 1 plays intro 2 more times while guitar 2 plays this twice palm mute clean:
|----------------------------------------------------------------|
|----------------------------------------------------------------|
|--------------------------------------4-4-4-4-4-4---------------|
|--2-2-2-2-2-2-5-5-5-5-5-5-4-4-4-4-4-4-4-4-4-4-4-4---------------|
|--2-2-2-2-2-2-5-5-5-5-5-5-4-4-4-4-4-4-2-2-2-2-2-2---------------|
|--0-0-0-0-0-0-3-3-3-3-3-3-2-2-2-2-2-2---------------------------|
Drums enter
Verse Play 4 times(palm mute and clean)
|----------------------------------------------------------------|
|----------------------------------------------------------------|
|--------------------------------------4-4-4-4-4-4---------------|
|--2-2-2-2-2-2-5-5-5-5-5-5-4-4-4-4-4-4-4-4-4-4-4-4---------------|
|--2-2-2-2-2-2-5-5-5-5-5-5-4-4-4-4-4-4-2-2-2-2-2-2---------------|
|--0-0-0-0-0-0-3-3-3-3-3-3-2-2-2-2-2-2---------------------------|

Chorus(Distorted) play 2 times


|----------------------------------------------------------------|
|----------------------------------------------------------------|
|--------------------------------------4-4-4-4-4-4---------------|
|--2-2-2-2-2-2-5-5-5-5-5-5-4-4-4-4-4-4-4-4-4-4-4-4---------------|
|--2-2-2-2-2-2-5-5-5-5-5-5-4-4-4-4-4-4-2-2-2-2-2-2---------------|
|--0-0-0-0-0-0-3-3-3-3-3-3-2-2-2-2-2-2---------------------------|
Interlude: play intro 2 times on clean
|---------------------------------------------------------|
|---------------------------------------------------------|
|------------------------------------------4-----4--------|
|------2-----2-----5-----5-----4-----4---4-----4----------|
|----2-----2-----5-----5-----4-----4---2-----2------------|
|--0-----0-----3-----3-----2-----2------------------------|
Come in with the palm mute on the second half of interlude for 2 times.
|-----------------------------------------------------------------|
|-----------------------------------------------------------------|
|--------------------------------------4-4-4-4-4-4----------------|
|--2-2-2-2-2-2-5-5-5-5-5-5-4-4-4-4-4-4-4-4-4-4-4-4----------------|
|--2-2-2-2-2-2-5-5-5-5-5-5-4-4-4-4-4-4-2-2-2-2-2-2----------------|
|--0-0-0-0-0-0-3-3-3-3-3-3-2-2-2-2-2-2----------------------------|
Verse 2: Same as verse one for the first two times palm mute

|-----------------------------------------------------------------|
|-----------------------------------------------------------------|
|--------------------------------------4-4-4-4-4-4----------------|
|--2-2-2-2-2-2-5-5-5-5-5-5-4-4-4-4-4-4-4-4-4-4-4-4----------------|
|--2-2-2-2-2-2-5-5-5-5-5-5-4-4-4-4-4-4-2-2-2-2-2-2----------------|
|--0-0-0-0-0-0-3-3-3-3-3-3-2-2-2-2-2-2----------------------------|
On the last two times Guitar 2 comes in and plays the intro only distorted
|----------------------------------------------------------|
|----------------------------------------------------------|
|------------------------------------------4-----4---------|
|------2-----2-----5-----5-----4-----4---4-----4-----------|
|----2-----2-----5-----5-----4-----4---2-----2-------------|
|--0-----0-----3-----3-----2-----2-------------------------|
Chorus
Interlude
Tap to rate this tab
 
# A B C D E F G H I J K L M N O P Q R S T U V W X Y Z