Song name
# A B C D E F G H I J K L M N O P Q R S T U V W X Y Z

Collective Soul - Sattelite tab

Collective Soul
Sattelite
Tabbed by Daniel Toich
           
Intro and verses                   
                     
|-----3--------------3----------------------|
|---3--3-3---------3--3-3-------------------|   
|--0-0--0---X4----0-0--0---X4---------------|     
|-------------------------------------------|  
|-------------------------------------------|
|-0--------------3--------------------------|

Chorus

|-----5--------------3------------5---------3--------5-----|
|---3--3-3---------3--3-3-------3--3-3----3--3-3---3--3-3--|
|--0-0--0---X4----2-2--2--X2---0-0--0----2-2--2---0-0--0--X4
|----------------------------------------------------------|
|-3---------------------------3------------------3---------|
|---------------2-----------------------2------------------|

Bridge
‘and the river will flow...’

|---3------3-----3-----3-----3------3-|
|---3------3-----3-----3-----3------3-|
|---0------0-----0-----0-----0------0-|
|-------------------------------------|
|--------3-----------3------------3---|
|-3------------3-----------3----------|

Chorus tab plays throughout soloand Chorus is repeated till end
Tap to rate this tab
# A B C D E F G H I J K L M N O P Q R S T U V W X Y Z