Song name
# A B C D E F G H I J K L M N O P Q R S T U V W X Y Z

Collective Soul - Maybe tab

Help us improve GuitareTab! Take a short survey!
This is Maybe by Collective Soul
It's about 99.9% right :D
if anythings wrong just let me know
by Coolieo


 Verse Chords:             G  D/F# Em7  C9
                    e-----3---3----3---3-|
                    B-----3---3----3---3-|
                    G-----0---2----0---0-|
                    D-----0---0----2---2-|
                    A-----2---0----2---3-|
                    E-----3---2----0-----|

Intro/Verse
e----3-----3--------3-----3--------3-----3--------3-----3-------|
B----3-----3--------3-----3--------3-----3--------3-----3-------|
G----0-----0--------2-----2--------0-----0--------0-----0-------|
D-00---000---0---00---000---0---22---222---2---22---222---2-----|   X5
A-22---222---2---00---000---0---22---222---2---33---333---3-----|
E-33---333---3---22---222---2---00---000---0---00---000---0-----|

Pre Chorus Chords:    As4  A  C9
                     E---------3-|
                     B-3---2---3-|
                     G-2---2---0-|
                     D-2---2---2-|
                     A-0---0---3-|
                     E-----------|

Pre Chorus:
  |  8   |   |  8   |   |     16       |
e-----------------------3333333333333333--------------|
B-33333333---22222222---3333333333333333--------------|
G-22222222---22222222---0000000000000000--------------|
D-22222222---22222222---2222222222222222--------------|
A-00000000--------------3333333333333333--------------|
E-----------------------------------------------------|

Chorus Chords:      G  C9  Am  As2 G/B
              E-----3---3---0---0---0-|
              B-----3---3---1---0---3-|
              G-----0---0---2---2---0-|
              D-----0---3---2---2---0-|
              A-----2---2---0---0---2-|
              E-----3---0-------------|

Chorus
     8          8                                 12
e-33333333---33333333---33333333---33333333----------------------------|
B-33333333---33333333---33333333---33333333---111111111111---00---3----|
G-00000000---00000000---00000000---00000000---222222222222---22---0----|
D-00000000---22222222---00000000---22222222---222222222222---22---0----|
A-22222222---33333333---22222222---33333333-----------------------2----|
E-33333333--------------33333333---------------------------------------|

         18
e-333333333333333333-----|
B-333333333333333333-----|
G-000000000000000000-----|
D-222222222222222222-----|
A-333333333333333333-----|
E------------------------|

Intro/Verse
e----3-----3--------3-----3--------3-----3--------3-----3-------|
B----3-----3--------3-----3--------3-----3--------3-----3-------|
G----0-----0--------2-----2--------0-----0--------0-----0-------|
D-00---000---0---00---000---0---22---222---2---22---222---2-----|   X6
A-22---222---2---00---000---0---22---222---2---33---333---3-----|
E-33---333---3---22---222---2---00---000---0---00---000---0-----|

Pre Chorus:
e-----------------------3333333333333333--------------|
B-33333333---22222222---3333333333333333--------------|
G-22222222---22222222---0000000000000000--------------|
D-22222222---22222222---2222222222222222--------------|
A-00000000--------------3333333333333333--------------|
E-----------------------------------------------------|


Chorus
     8          8                                 12
e-33333333---33333333---33333333---33333333----------------------------|
B-33333333---33333333---33333333---33333333---111111111111---00---3----|
G-00000000---00000000---00000000---00000000---222222222222---22---0----|
D-00000000---22222222---00000000---22222222---222222222222---22---0----|
A-22222222---33333333---22222222---33333333-----------------------2----|
E-33333333--------------33333333---------------------------------------|


         18
e-333333333333333333-----|
B-333333333333333333-----|
G-000000000000000000-----|
D-222222222222222222-----|
A-333333333333333333-----|
E------------------------|

Bridge
     8          8          8           8            16
e-33333333---33333333---33333333---33333333---3333333333333333-----|
B-33333333---33333333---33333333---33333333---3333333333333333-----|
G-00000000---00000000---00000000---00000000---0000000000000000-----|
D-22222222---22222222---22222222---22222222---2222222222222222-----|
A-22222222---33333333---22222222---33333333---2222222222222222-----|
E---------------------------------------------3333333333333333-----|

         16
e-3333333333333333-----|
B-3333333333333333-----|
G-2222222222222222-----|
D-0000000000000000-----|
A-0000000000000000-----|
E-2222222222222222-----|


Interlude
e----3-----3--------3-----3--------3-----3--------3-----3-------|
B----3-----3--------3-----3--------3-----3--------3-----3-------|
G----0-----0--------2-----2--------0-----0--------0-----0-------|
D-00---000---0---00---000---0---22---222---2---22---222---2-----|   X4
A-22---222---2---00---000---0---22---222---2---33---333---3-----|
E-33---333---3---22---222---2---00---000---0---00---000---0-----|

Pre Chorus:
e-----------------------3333333333333333--------------|
B-33333333---22222222---3333333333333333--------------|
G-22222222---22222222---0000000000000000--------------|
D-22222222---22222222---2222222222222222--------------|
A-00000000--------------3333333333333333--------------|
E-----------------------------------------------------|


Chorus
     8          8                                 12
e-33333333---33333333---33333333---33333333----------------------------|
B-33333333---33333333---33333333---33333333---111111111111---00---3----|
G-00000000---00000000---00000000---00000000---222222222222---22---0----|
D-00000000---22222222---00000000---22222222---222222222222---22---0----|
A-22222222---33333333---22222222---33333333-----------------------2----|
E-33333333--------------33333333---------------------------------------|


         18
e-333333333333333333-----|
B-333333333333333333-----|
G-000000000000000000-----|
D-222222222222222222-----|
A-333333333333333333-----|
E------------------------|


End
e-3-
B-3-
G-0-
D-0-
A-2-
E-3-
Related for Maybe tab