Guitaretab - guitar tabs
Song name
# A B C D E F G H I J K L M N O P Q R S T U V W X Y Z

Collective Soul - Greatest Hits tab

#----------------------------------PLEASE NOTE---------------------------------#
#This file is the author's own work and represents their interpretation of the #
#song. You may only use this file for private study, scholarship, or research. #
#------------------------------------------------------------------------------#
Full collective soul gr8est hits tabs
Tabbed by :Ryno de Weerdt (South Africa)
I tabbed all the song except next homecoming

Enjoy

1. Heavy
2. She Said
3. Shine
4. Energy
5. Run
6. Gel
7. Precious Declaration
8. Why Pt. 2
9. The World I Know
*10. Next Homecoming
11. Listen
12. December
13. Forgiveness


1.Heavy Tab by Collective Soul, www.Ultimate-Guitar.Com

Heavy
As performed on "Dosage"
Words and music by Ed Roland

Standard Eb tuning

h            hammer on
p            pull off
PM           palm muting
b            bend
r            return
x            muffled strings
~            vibrating
/            slide up
            slide down
TR           tremelo picking
Ed           Guitar 1
Dean         Guitar 2
Ross         Guitar 3
All guitars  D'uh

Intro (Dean, w/ distortion, x5)
eb[---------------------------------------|
Bb[---------------------------------------|
Gb[---------------------------------------|
Db[---------------------------------------|
Ab[---------------------------------------|
Eb[-0-0-0-0-12-12-12-12-0-12-0------------|

Main riff (All guitars, w/ distortion, x3)    End with this
eb[---------------------------------]-----------------|
Bb[---------------------------------]-----------------|
Gb[---------------------------------]-----------------|
Db[---------------------------------]-----------------|
Ab[---------5p0---------------1p0---]---------5p0-----|
Eb[-0-0-0-0-----0-0-----0h3h5-----3-]-0-0-0-0-----0-0-|
   PM......    PM..                  PM......    PM..

Verse (Ed, w/ distortion, let ring, x2)
eb[-3----------------------|
Bb[-3----------------------|
Gb[-0----------------------|
Db[-0----------------------|
Ab[-2----------------------|
Eb[-3----------------------|

Verse (Dean and Ross, w/ distortion, let ring, x2)
eb[-----------------------|
Bb[-----------------------|
Gb[-----------------------|
Db[-5---------------------|
Ab[-5---------------------|
Eb[-3---------------------|

All guitars play main riff twice in between each verse part and before thr chorus

The chorus is kinda messed up because Ed, Dean, and Ross are all playing
different parts.  I usually play Dean's part.
Chorus (Ed, w/ distortion, x2)
eb[-2-------0-------0-------3-]----------|
Bb[-3-------2-------1-------3-]----------|
Gb[-2-------2-------0-------0-]----------|
Db[-0-------2-------2-------0-]----------|
Ab[---------0-------3-------2-]----------|
Eb[-------------------------3-]-3-----2--|

Chorus (Dean, w/ distortion, x2)
eb[---------------------------]----------|
Bb[---------------------------]----------|
Gb[-7---------------5---------]----------|
Db[-7-------7-------5-------5-]----------|
Ab[-5-------7-------3-------5-]----------|
Eb[-5-------5-------3-------3-]-3-----2--|

Chorus (Ross, w/ distortion, x2)
eb[-------------------------------------|
Bb[-------------------------------------|
Gb[-19-------18-------17-------16-------|
Db[-x--------x--------x--------x--------|
Ab[-17-------16-------15-------14-------|
Eb[-------------------------------------|

Ed and Dean play main riff (w/ ending)
Ross' new interlude is this (w/ distortion, x2)
eb[-------------------|
Bb[-53-3/5------------|
Gb[-42-2/4------------|
Db[-------------------|
Ab[-------------------|
Eb[-------------------|

All guitars play their verse parts, but during the main riff, Ross plays the new interlude

Chorus

Bridge (All guitars, w/ distortion, x4)
eb[--------------------------------------------|
Bb[--------------------------------------------|
Gb[----------------------------12-12-12-12-----|
Db[----------------------------12-12-12-12-----|
Ab[--------------------------------------------|
Eb[-0--0-12-0-0-12-0-0-12-0-0------------------|

GUITAR SOLO (Ross, w/ distorion and wah pedal.  I am not quite sure about the
muffled strings)
eb[------------------------x-x--------------------x-x-----|
Bb[------------------------x-x--------------------x-x-----|
Gb[-12--(bend slowly)-b14--x-x--14b16r14-14b18r14-x-x-----|
Db[------------------------x-x--------------------x-x-----|
Ab[------------------------x-x--------------------x-x-----|
Eb[------------------------x-x--------------------x-x-----|
    TR.............

eb[--------------------------------x-------x-------x--------|
Bb[-(Really, really vibrate)-17~~~-x-17~~~-x-17~~~-x-17~~~--|
Gb[--------------------------------x-------x-------x--------|
Db[--------------------------------x-------x-------x--------|
Ab[--------------------------------x-------x-------x--------|
Eb[--------------------------------x-------x-------x--------|

eb[--------------------------------------------------------|
Bb[-19p17-22p21p19-----------------------------------------|
eb[-----------------(bend slowly)-14-14-14-14-14-14b16-----|
Bb[--------------------------------------------------------|
eb[--------------------------------------------------------|
Bb[--------------------------------------------------------|

eb[----------x-x----------x-x----------x-x----------x-x----------x-x-|
Bb[----------x-x----------x-x----------x-x----------x-x----------x-x-|
Gb[-14b18r14-x-x-14b16~~~-x-x-16b18~~~-x-x-18b20~~~-x-x-20b22~~~-x-x-|
Db[----------x-x----------x-x----------x-x----------x-x----------x-x-|
Ab[----------x-x----------x-x----------x-x----------x-x----------x-x-|
Eb[----------x-x----------x-x----------x-x----------x-x----------x-x-|

eb[-22b24r-------------------------------------|
Bb[--------------------------------------------|
eb[--------------------------------------------|
Bb[--------------------------------------------|
eb[--------------------------------------------|
Bb[--------------------------------------------|

Chorus

Play Main Riff 3 times (w/ Ross' interlude)

End on this
eb[--------------------------------------------|
Bb[--------------------------------------------|
eb[--------------------------------------------|
Bb[--------------------------------------------|
eb[---------5p0--------------------------------|
Bb[-0-0-0-0-----0-0----------------------------|
   PM......    PM..

Done.

Song Structure
Intro
Main Riff
Verse
Main Riff
Verse
Main Riff
Chorus
Main Riff
Verse
Main Riff
Verse
Main Riff
Chorus
Bridge
GUITAR SOLO
Chorus
Main Riff


2. She Said Tab by Collective Soul, www.Ultimate-Guitar.Com

                     Collective Soul-She Said

-----|------------------3--|------------------------3--|---------------------|
-----|------------3-----3--|------------------------3--|---------------------|
-----|------------0-----0--|-----0-h-0----0----0----0--|---------------------|
-----|---0-h-2------0------|-----0-h-2----0----0----0--|---------------------|
-----|---0-h-3------2------|-----0-h-3----0----2----2--|---2--3--2-----------|-
-----|--------------3------|-------------------3----0--|--------------3---0--|
           Riff 1                  Riff 2                         Riff 3

 Chords
 Cadd9        032033
 G            320033
 F            133211
 C            032010

 Intro Riff 1 X 3

 Riff 1                       Riff 1
 She said that time is unfair to a woman her age
 Riff 1                       Riff 1
 And now that wisdom has come everything else fades
 F                       C                      Riff 1x2
 She said she realizes she's seen her better days
                            *Riff 2                        * Bandintro
 She said she can't look back to her days of youth
 Riff 2                      Riff 2
 What she thought were lies, she later found was truth
 F                            C                      Riff 2X2
 She said her daddy had dreams but he drank them away
 F                          C                      Riff 2X2
 And her mother's to blame for the way she is today

 G                      Cadd9
 Life's river shall rise, she said
 G                       Cadd9
 And only the strong shall survive, she said                      verse
 G                       Cadd9
 But I'm feeling quite weak, she said
 G                          Cadd9        Riff2x2
 Will you comfort and forgive me, she said

 Riff 2                         Riff 2
 She said she's still searching for salvation's light
 Riff 2                 Riff 2
 Yet she wishes all day and she prays all night
 F                                C                           Riff 2x2
 She said she won't speak of love cause love she's never known
 F                           C                    Riff 2x2
 And it's moments like these she hates to be alone

 G                     Cadd9
 Life's river shall rise, she said
 G                      Cadd9
 And only the strong shall survive, she said
 G                      Cadd9
 But I'm feeling quite weak, she said
 G                             Cadd9      Riff 2x4
 Will you comfort and forgive me, she said

 F                    C                  Riff 2x2
 F                    C                  Riff 2x2
 Riff 1            Riff 1           Riff 1       Riff 1

 Play verse two times but on the second time use this ending

 G                       Cadd9 Cadd9               Riff 2x2
 Will you comfort and forgive, forgive me, She said
 Riff 1      Riff 1
 Forgive me, she said
 Riff 1      Riff 1
 Forgive me, she said

 Remember at the end of the riff stop it before the drumb beat.

3. Shine Tab by Collective Soul, www.Ultimate-Guitar.Com

-------------------------------------------------------------------------------
			     SHINE - Collective Soul
-------------------------------------------------------------------------------

By:Lachrymal

Tuned to Dropped Db

Verse:
    give me a word,    give me a sign...
eb|--------------------------------------------|
Bb|--------------------------------------------|
Gb|-9h11-11-11-9-9-7-7-9h11-11-11-14-14-7-9-11-|
Db|-0-----0--0-0-0-0-0-0-----0--0--0--0-0-0--0-|
Ab|-0-----0--0-0-0-0-0-0-----0--0--0--0-0-0--0-|
Db|-0-----0--0-0-0-0-0-0-----0--0--0--0-0-0--0-|

eb|--------------------------------------------|
Bb|--------------------------------------------|
Gb|-5-xx-5-x-5-5-5-5555-7-xx-7-x-7-7-7-7777----|
Db|-5-xx-5-x-5-5-5-5555-7-xx-7-x-7-7-7-7777----|
Ab|-3-xx-3-x-3-3-3-3333-5-xx-5-x-5-5-5-5555----|
Db|--------------------------------------------|

PreChorus:
                       yeah...                   yeah...
eb|------------------------|------------------------|
Bb|------------------------|------------------------|
Gb|------------------------|------------------------|
Db|-0-00-3p0-0-3p0-0-3h5---|-0-00-3p0-0-3p0-0-3h5-6-|
Ab|-0-00-3p0-0-3p0-0-3h5---|-0-00-3p0-0-3p0-0-3h5-6-|
Db|-0-00-3p0-0-3p0-0-3h5---|-0-00-3p0-0-3p0-0-3h5-6-|

Chorus:
    whoah!!!    heaven let you're light shine down...
eb|-------------------------|
Bb|-------------------------|
Gb|-------------------------|
Db|-5555-5-555555-000000000-|
Ab|-3333-3-555555-000000000-|
Db|--------555555-000000000-|


4. Energy Tab by Collective Soul, www.Ultimate-Guitar.Com

1|-------------------------------------------------------------------------|
2|-------------------------------------------------------------------------|
3|-------------------------------------------------------------------------|
4|-7-7-7-7-7-7-7-7-7-7-7-7-8-8-8-8-8-8-8-8-8-8-8-8-9-9-9-9-9-9-9-9-9-9-9-9-|
5|-7-7-7-7-7-7-7-7-7-7-7-7-8-8-8-8-8-8-8-8-8-8-8-8-9-9-9-9-9-9-9-9-9-9-9-9-|
6|-5-5-5-5-5-5-5-5-5-5-5-5-6-6-6-6-6-6-6-6-6-6-6-6-7-7-7-7-7-7-7-7-7-7-7-7-|

chorus (clean)

1|-------------------------------------------------------------------------|
2|-------------------------------------------------------------------------|
3|-------------------------------------------------------------------------|
4|-7-7-7-7-7-7-7-7-7-7-7-7-6-6-6-6-6-6-6-6-6-6-6-6-9-9-9-9-9-9-9-9-9-9-9-9-|
5|-7-7-7-7-7-7-7-7-7-7-7-7-6-6-6-6-6-6-6-6-6-6-6-6-9-9-9-9-9-9-9-9-9-9-9-9-|
6|-5-5-5-5-5-5-5-5-5-5-5-5-4-4-4-4-4-4-4-4-4-4-4-4-7-7-7-7-7-7-7-7-7-7-7-7-|

bridge (distorted)

1|----------------------|
2|----------------------|
3|----9----9----9---9---|
4|---8----8-8--8---8-8--|
5|--7----7----7---7---7-|
6|-5----5----5---5------|

thats it, 3 riffs enjoy :-D

5. Run Tab by Collective Soul, www.Ultimate-Guitar.Com

Regular tuning EBGDAE

Enjoy.

Chords:
  B     A    E   F#sus4   F#
--2-- --0-- --0-- --2--  --2--|
--4-- --2-- --0-- --2--  --2--|
--4-- --2-- --1-- --4--  --3--|
--4-- --2-- --2-- --4--  --4--|
--2-- --0-- --2-- --2--  --4--|
--2-- --0-- --0-- --2--  --2--|

v= vibrato
h= hammer on


Acoustic Part Verse 1, 2 and chorus:
Verse 1:
B
Are these..

A              E
I've never...before
          B     F#
....I've waited for

B
Now as...

A                    E
There's nothing.. Insure

    B       E
....messenger.

Chorus:
E         B       F#  F#sus4,  F#
Have I...long...run.

E         B       F#  F#sus4,  F#
Have I...long...run.

 E        B       F#  F#sus4
Run.....

Electric Guitar Chorus:

E--------------------------------------------------------------------|
B--------------------------------------------------------------------|
G--------9-----------11------11---------------11---------------------|
D-----9-----------9-------8h9---9-8--------8h9---9-8-----------------|
A--9-----------9--------------------9----------------9---------------|
E--------------------------------------------------------------------|


Verse 2:
Same as verse 1


Solo: Played with Wah
E----------------------------------------------------------------------|
B---13v-----13v------13-12--10-12----13v-----13v------13-12--10-12-----|
G----------------------------------------------------------------------|
D-------10------10-----------------------10------10--------------------|
A----------------------------------------------------------------------|
E----------------------------------------------------------------------|

The rest of the song is easy to follow.

Play the chorus 2X
Add Electric guitar chorus and Play 4X
Add Electric Solo And Play 2X

6. Gel Tab by Collective Soul, www.Ultimate-Guitar.Com

Intro: Clean

       |------------------------------------------|
       |------------------------------------------|
       |------------------------------------------|
       |------------------------------------------|
       |--6-7------6--6---6-7---------------------|
       |--6-7--6-7---7----6-7-6-7-----------------|

       Distortion
       |------------------------------------------|Color Me Any Color...
       |------------------------------------------|
       |----------------9-10-9-7------------------|
       |--9-9-9-9-9-9---9-10-9-7------------------|
       |--9-9-9-9-9-9-0-7-8--7-5------------------|
       |--7-7-7-7-7-7-----------------------------|

       |------------------------------------------|Well I Just Want...
       |------------------------------------------|
       |------------------------------------------|
       |--7/5/9-----------------------------------|
       |--7/5/9-----------------------------------|
       |--5/3/7--0-3-0-4--------------------------|

       |------------------------------------------|
       |------------------------------------------|
       |----------------9-10-9-7------------------|
       |--9-9-9-9-9-9---9-10-9-7------------------|
       |--9-9-9-9-9-9-0-7-8--7-5------------------|
       |--7-7-7-7-7-7-----------------------------|

       |------------------------------------------|Well I Just Want...
       |------------------------------------------|
       |------------------------------------------|
       |--7/5/9/5/9/5/9---------------------------|
       |--7/5/9/5/9/5/9---------------------------|
       |--5/3/7/3/7/3/7--0-3-0-4-0-5--------------|


       |------------------------------------------|Let's Mingle..
       |------------------------------------------|
       |-------8/9---------------8/9--------------|
       |--8/9--8/9-8/9-999--8/9--8/9-8/9-999------|
       |--8/9--6/7-8/9-999--8/9--6/7-8/9-999------|
       |--6/7------6/7-777--6/7------6/7-777------|

       |------------------------------------------|Repeat
       |------------------------------------------|
       |----------------9-10-9-7------------------|
       |--9-9-9-9-9-9---9-10-9-7------------------|
       |--9-9-9-9-9-9-0-7-8--7-5------------------|
       |--7-7-7-7-7-7-----------------------------|


7. Precious Declaration Tab by Collective Soul, www.Ultimate-Guitar.Com

Artist: Collective Soul
Song: Precious Declaration
Tabbed by: Zuka (zuka4077@hotmail.com)

Well, it is kind of sad that everyone seems to
tab this wrong. A few have come very close, however.
-->Tune your guitars down half a step, boys and girls.

Legend: / = slide up to         + = Let ring
         = slide down to       b = bend string
        r = release bend        * = palm mute
        h = hammer on           p = pull off
        X = scratch             ~ = vibrato

Intro:

Guitar 1:
e|---------------------|
B|---------------------|
G|---------------------| X4
D|---------------------|
A|-------5p0-----------|
E|-0-5/7-----0-3-0-0-0-|

(Guitar 2 comes in 3rd time)

Verse:

Both Guitars:
(Mute the strings totally, until last few chords)
e|---------------------------------|
B|---------------------------------|
G|---------------------------------|
D|-5-5-5-5-5-5-5-5-5-5-5-5-5-5-5-5-|
A|-5-5-5-5-5-5-5-5-5-5-5-5-5-5-5-5-|
E|-3-3-3-3-3-3-3-3-3-3-3-3-3-3-3-3-|
(Hitched a ride to the...)

(Main riff)

-The whole verse is played twice-

Pre-Chorus:

Both Guitars:
e|---------------------------------------------|
B|---------------------------------------------|
G|-/4~-2-0-/5-4~-2-0-/5-4~-2-0--/9-7-7-9-4-2-0-|
D|---------------------------------------------|
A|---------------------------------------------|
E|---------------------------------------------|
(I cant crash now...)

Chorus:

Guitar 1:
(The strumming pattern isnt included, but
 its so easy to understand anyways)
e|--------|-----|
B|--------|-----|
G|-----5--|--8--| <--(Second time)
D|-5---5--|--6--|
A|-5---3--|--6--|
E|-3------|-----|
(Precious Declaration says...)

Guitar 2:
(This is totally random with these 4 notes,
 but basically follow this riff)
e|-----------------8-------------------------8-------|
B|-10-8-8-12-10-10---12-8-10-10-12-8-8-10-12---12-12-|
G|---------------------------------------------------|
D|---------------------------------------------------|
A|---------------------------------------------------|
E|---------------------------------------------------|
(This is also played very fast, so hammer on and pull off
 when possible)

(Back to verse)
(Back to chorus)

Interlude:

Guitar 1:
(Once again the strumming pattern is not stated)
e|--------|-----|
B|--------|-----|
G|--------|-----|
D|-7---9--|--5--|<--Second time
A|-7---9--|--5--|
E|-5---7--|--3--|

Guitar 2:
e|-2---4--|--0--|
B|-2---4--|--0--|
G|-2---4--|--0--|
D|--------|-----|
A|--------|-----|
E|--------|-----|
(Think for about 3 seconds and you'll recognize
 how and when this is played)

(Main riff, cut back by one note)

Bridge:

(Guitar 1 plays Pre-Chorus)

e|------------------------------------------------------12-10-10-12--------|
B|----------------------------8~-7-8-7-8~--10-12-12~-8--------------12-10-8|
G|-/4~-2-0-/4-5~-7-9-9~-9~-------------------------------------------------|
D|-------------------------------------------------------------------------|
A|-------------------------------------------------------------------------|
E|-------------------------------------------------------------------------|
(Listen so you know when to play and when NOT to...)

(Chorus)

(Verse)

And thats all. Joel plays the Pre-Chorus with only a one-note
difference than what Ross used to, just in case you were wondering.

Road map:
-Intro
-Verse
-Chorus
-Verse
-Chorus
-Interlude
(Easy space for a drum solo here)
-Bridge
-Chorus
-Outro (Same as intro)

Enjoy.

8. Why Part 2 Tab by Collective Soul, www.Ultimate-Guitar.Com

Tuning: Drop d with half step (Db,Ab,Db,Gb,Bb,eb)

I owe the solo to this tab, but you have everything else, maybe in a future I'll add
the solo.

Intro, Verse
-------------------
-------------------
-------------------
--0-0--0---0-0--0--
--0-0--0---0-0--0--
--0-0--0---0-0--0--

Pre-Chorus
-----9-------5--------------------
-----9-------5--------------------
-----11------7--------------------
--9--9----5--5---0-0--0---0-0--0--
--9--9----5--5---0-0--0---0-0--0--
--9--9----5--5---0-0--0---0-0--0--

Chorus
Guitar 1
-------------------------------------------------------------------
-------------------------------------------------------------------
-------------------------------------------------------------------
--9-9-9-9-9-9-9-9-5-5-5-5-5-5-5-5-0-0-0-0-0-0-0-0-0-0-0-0-0-0-0-0--
--9-9-9-9-9-9-9-9-5-5-5-5-5-5-5-5-0-0-0-0-0-0-0-0-0-0-0-0-0-0-0-0--
--9-9-9-9-9-9-9-9-5-5-5-5-5-5-5-5-0-0-0-0-0-0-0-0-0-0-0-0-0-0-0-0--

I'm not really sure about guitar 2 in the chorus, but anyway I think this can
work, and if you have any correction or anything to add, you're more than
welcome to do it.
-------------10----------------------------------------------------------------------------------
----------------------10--------------10---------------------10---------------------10-----------
-------11-12----12-11--------------11----11----11---------11----11----11---------11----11----11--
--9-12--------------------9--12-12----------12------12-12----------12------12-12----------12-----
-------------------------------------------------------------------------------------------------
-------------------------------------------------------------------------------------------------

Outro
-------------------------------------------
-------------------------------------------
-------------------------------------------
--0-0--0---0-0--0---0-0---0-0--0---0-0--0--
--0-0--0---0-0--0---0-0---0-0--0---0-0--0--
--0-0--0---0-0--0---0-0---0-0--0---0-0--0--
That's it
Thanks and check my other tabs.

9. The World I Know Tab by Collective Soul, www.Ultimate-Guitar.Com

slide up- /
slide down-
strum- ^

   D  Dsus4  D(add9)  A   G  C
e--2--3------0------------3--0--|
B--3--3------3--------2---3--1--|
G--2--2------2--------2---0--0--|
D--0--0------0--------2---0--2--|
A---------------------0---x--3--|
E-------------------------3-----|

Intro / Verse
e----------------------------------------|
B----------------------------------------|
G--77777--72--2-2222--44444-4-44/6--66---|
D--00000--0--0-0000--00000-0-00/0--00---|
A--xxxxx--xx--x-xxxx--xxxxx-x-xx/x--xx---|
E--77777--72--2-2222--33333-3-33/5--55---|

Prechorus

(Guitar 1)

A ^ ^ ^ ^ ^ ^ ^ ^ ^ G ^ ^ ^ ^ ^ ^ ^ ^ ^ ^

(Guitar 2)

--7------7------7------10----7-------8-7---|
----10-----10-----10-----------8---------8-|
-------9-------------9------------7--------|
---------------------------0---------------|
-------------------------------------------|
-------------------------------------------|


Chorus

D ^ ^ ^ ^ A ^ ^ ^ ^ ^ G ^ ^ ^ ^ ^ D ^ ^ Dsus4 D D(add9)

D ^ ^ ^ ^ A ^ ^ ^ ^ ^ C ^ ^ ^ ^ ^ G ^ ^ ^ ^ ^


Interlude
e--------------------------------------------------|
B----------------------10---10p12---12---12---10---|
G--9h11------11---11-------------------------------|
D-------12p9----9----9----9-------9----9----9----9-|
A--------------------------------------------------|
E--------------------------------------------------|


Outro

(Guitar 1)
E----------------------|
B----------------------|
G--2-2-2-2--4-4-4-44---|
D--0-0-0-0--0-0-0-0----| x4
A--x-x-x-x--x-x-x-xx---|
E--2-2-2-2--3-3-3-35---|
[ Tab from: http://www.guitaretab.com/c/collective-soul/142744.html ]
(Guitar 2)
e------5--|
B----3----|
G--2------|
D---------|  x29
A---------|
E---------|

Ending Chord

e--3-
B--3-
G--0-
D--0-
A--x-
E--3-


intro/verse x8
prelude
intro/verse x6
prelude
chorus
intrelude
prelude
chorusx2
outro
ending chord


10.


11. Listen Tab by Collective Soul, www.Ultimate-Guitar.Com


Intro using Riff 1

w/ effect					Riff 1 (guitar1)

E-------------------------------------------------------------------------------|
B-------------------0-------2---------------3h2----------------.----------------|
G---------------------2-------2-------------------2-------------------| times 6-|
D------------------------------------------------------------------.------------|
A-----0-----0-0----------0------0-----------------------------------------------|
E-------------------------------------------------------------------------------|


Guitar1 repeats riff 1 throughout section ( twice per line)


 fill 1	(guitar2)	      fill 1
E-----s7---5----------------------------|        Hey you're now thirsty
B-----s5---5----------------------------|
G---------------------------------------|        Walking in the desert all alone
D---------------------|          fill 1-|
A---------------------------------------|        Hey you're now searching
E---------------------------------------|
				Lost in isolation from your soul


		Verse 1
		(guitar 1)
			         A			  D5
				The bullet you bite
					        	     A
				From the pain you request
						       E
				You're finding it harder to digest
			        A				     D5
				And the answers you seek
							    A
				And the ones you destroy
							D5
				Your anger's so well deployed

	Verse 1
	(Guitar 2)

			 A	      half-step  D5	   A
        E-----3h5----5------7b----5-------3-5-3-5-3-5-3------------------------|
        B------------------------------------5-5-5-5-5-5-5---------------------|
        G----------------------------------------------------------------------|
        D----------------------------------------------------------------------|
        A----------------------------------------------------------------------|
        E----------------------------------------------------------------------|


		        E
        E----------3------------------------------------------------------------|
        B----5----------5h8p5---------------------------------------------------|
        G------------------------s7-6-4-----------------------------------------|
        D-----------------------------------------------------------------------|
        A-----------------------------------------------------------------------|
        E-----------------------------------------------------------------------|

		        A   	       D5	          A	     D5______16 times____
		       half-step	  half-step			              |		             |
        E-----7b----5------7b----5-----3-5-3-5-3-5-3-5555555555555555-------------|
        B---------------------------------5-5-5-5-5-5-5-555555555555555555--------|
        G-------------------------------------------------------------------------|
        D-------------------------------------------------------------------------|
        A-------------------------------------------------------------------------|
        E-------------------------------------------------------------------------|


	Chorus
			        A	       B5	          D5
				fill 1
				Hey 	why can't you listen
			        A	       B5	          D5
				fill 1
				Hey 	why can't you hear
			        A	        B5          D5
				fill 1
				Hey 	why can't you listen
				            F	          D5     A
				As	love screams everywhere

riff 1 is played x 4 while guitar 2 plays natural harmonics with muting

(riff 1 is played twice per line)

				fill 1
				Hey you now hunger

				Feeding your mind with selfishness
				fill 1
				Hey you now wonder

				Aimlessly around your consciousness


Verse 2
(guitar 1)
			         A		                  D5
				Your prophecies fail
							         A
				And your thoughts become weak
					     E
				Silence creates necessity
			         A			              D5
				You're clothing yourself
						       A
				In the shields of despair
						          D5
				Your courage now impaired

***verse 2 for guitar 2 same as verse 1***

Chorus

Hey 	why can't you listen
Hey 	why can't you hear
Hey 	why can't you listen
As	love screams everywhere


Guitar1 plays Riff 1  x 4
Guitar2 plays natural harmonics w/ muting


					B5
					You crucify all honesty

					No signs you see do you believe
					       D5
					And all you words just twist and turn

					Reviving just to crash and burn
       					B5
					You're fighting till the bitter end
			   					     D5
					If only your heart could open up

					And listen
Guitar1 plays Riff1 x 4

Guitar Solo (guitar 2) 		Guitar1 plays same chords as verse

								play 3 times
E--------------------------------------------------------------------------------------|
B---------------------------------14------------15p14-----------------.----------------|
G-----14--14-14----16-14-14-----14-14-14-----------14----------------------------------|
D-------------------------------------------------------------------------.------------|
A--------------------------------------------------------------------------------------|
E--------------------------------------------------------------------------------------|

E--------------------------------------------------------------------------------------|
B-----15p14--------17p14------------17----15-----------14h15p14------------------------|
G--------------14---------------14-----------------------------------------16----------|
D--------------------------------------------------------------------------------------|
A--------------------------------------------------------------------------------------|
E--------------------------------------------------------------------------------------|

E--------------------------------------------------------------------------------------|
B---------------------------------14------------15p14-----------------.----------------|
G-----14--14-14----16-14-14-----14-14-14-----------14----------------------------------|
D-------------------------------------------------------------------------.------------|
A--------------------------------------------------------------------------------------|
E--------------------------------------------------------------------------------------|

E------------------------------------------------------------------------------------|
B-------------------------------------------    ----------------17----17----17---17--|
G----14s16--18-18-18-18--19--18h19p18--16-14----14---14-----14---14------------------|
D------------------------------------------------------------------------------------|
A------------------------------------------------------------------------------------|
E------------------------------------------------------------------------------------|

Chorus

(guitar1 - riff 1 x 4)
(guitar2 - muting and harmonics)

Hey 	why can't you listen
Hey 	why can't you hear
Hey 	why can't you listen
As	love screams everywhere

Hey 	why can't you listen
Hey 	why can't you hear
Hey 	why can't you listen
As	love screams everywhere

Outro
		(is made up of)
_________________________________________
|  rhythm guitar plays "A" major chord repeatedly  |
|						          |
|  muting with harmonics 			          |
|						          |
|  and riff 1 is played x 4			          |
|_________________________________________________|


P.S. I'm aware that this isn't a error-free tabbing but I did my best. I would 
if anyone had any suggestions, improvements or comments! (muri@po.-box.mcgill.ca)
Date: Saturday, April 3 1997
From: David Harrison
Subject: TAB: "Listen" by "Collective Soul"
Album: "Disciplined Breakdown"(1997)

This song is pretty cool and it's not bad for guitar either.
I'm pretty sure it's right but if you have any beef with it
or something positive to say about it than e-mail me.

Intro/Verse:
E|--------------------||
B|--------------3p2---||
G|-----4p2-6~~22---2~-||
D|--------------------||
A|-0~00---0-----------||
E|--------------------||

Pre-Chorus:
E|-5~~~~~8~7~5~~~~~5x750x00000-------------/8~7~5~~~~~8~7~5~~~~|
B|-------------^--------------5~~3~~2~~------------------------|
G|------------PM-----------------------4~~~--------------------|
D|-------------------------------------------------------------|
A|-------------------------------------------------------------|
E|-------------------------------------------------------------|

E|-x5x5x5x5x5x555555555555555555-||
B|--------------------------------||
G|--------------------------------||
D|--------------------------------||
A|--------------------------------||
E|--------------------------------||

Chorus:
E|---------------2~----------------------|
B|---------------3~----------------------|
G|-2-2-/11~-4-4-2~-7-7-7-7-7-7-7-7-xx----|
D|-2-2-/11~-4-4----7-7-7-7-7-7-7-7-xx----|
A|-0-0-------2-2----5-5-5-5-5-5-5-5-xx---|
E|---------------------------------------|

E|---------------2~---------------|
B|---------------3~---------------|
G|-2-2-/11~-4-4-2~-7-7-7-7-7-7----|
D|-2-2-/11~-4-4----7-7-7-7-7-7----|
A|-0-0-------2-2----5-5-5-5-5-5---|
E|--------------------------------|

E|---------------2~-------------------------------------|
B|---------------3~-------------------------------------|
G|-2-2-/11~-4-4-2~-7-7-7-7-7-7-xx-----------------------|
D|-2-2-/11~-4-4----7-7-7-7-7-7-xx-3-3-3-xx-5-5-5-xx-----|
A|-0-0-------2-2----5-5-5-5-5-5-xx-3-3-3-xx-5-5-5-xx----|
E|---------------------------------1-1-1-xx-3-3-3-xx----|

Interlude:
E|-----|    |-----||
B|-----|    |-----||
G|-4-4-| 4x |--7--||
D|-4-4-|Then|--7--||
A|-2-2-|    |--5--||
E|-----|    |-----||

Solo: It's A Lot Faster Than It's Shown Here
E|-------------------------------------------------------------|
B|---------------------15p14-------------------------15p14-----|
G|-14~141416p141418~14~-----141414~141416p141418~1414-----1414-|
D|-------------------------------------------------------------|
A|-------------------------------------------------------------|
E|-------------------------------------------------------------|

E|----------------------------------------------------------|
B|----------------------15p14--17p15p1414---17p15p14~17~15~-|
G|-14~141416p141418~1414-----14----------14~----------------|
D|----------------------------------------------------------|
A|----------------------------------------------------------|
E|----------------------------------------------------------|

E|-------------------------------------------------------------|
B|-14h15p14----------------------15p14-------------------------|
G|---------16~14~141416p1418~1414-----141414~141416p141418~1414|
D|-------------------------------------------------------------|
A|-------------------------------------------------------------|
E|-------------------------------------------------------------|

E|-------------------------------------------------------------|
B|-15p14----------141415p141415~14h15p14-----17~------17~------|
G|------1414141616----------------------1614~---14~14~---14~14~|
D|-------------------------------------------------------------|
A|-------------------------------------------------------------|
E|-------------------------------------------------------------|

E|------------||
B|-17~--------||
G|----14~14~~~||
D|------------||
A|------------||
E|------------||

Outro:
E|--------------------|    |-----|
B|-------------3p2----|    |-----|
G|-2-2-4p2-6~22---2~~-| 4X |--2~-|
D|-2-2----------------|Then|--2~-|
A|-0-0----0-----------|    |--0~-|
E|--------------------|    |-----|

Here's The Order:

Intro/Verse: (00:00)14x
Pre-Chorus:  (00:34) 1x
Chorus:      (00:53) 1x
Intro/Verse: (01:10)12x
Pre-Chorus:  (01:40) 1x
Chorus:      (01:59) 1x
Intro/Verse: (02:16) 4x
Interlude:   (02:25) 2x
Intro/Verse: (02:45) 4x
Solo:        (02:55) 1x
Chorus:      (03:14) 2x
Outro:       (03:48) 1x


12. Collective Soul
December

Repeat this for verses as necessary


e|-----------3-----|-----------3-----|-----------3-----|-------------------|
b|-----3---3---3---|-----3---3---3---|-----3---3---3---|-----3-------------|
g|---0---0-------0-|---0---0-------0-|---0---0-------0-|--0---0---0---0----|
d|-----------------|-----------------|-----------------|-------------------|
a|-----------------|-----------------|-3---------------|-1--------1--2-----|
e|-3---------------|-1---------------|-----------------|-------------------|


Repeat this for chorus as necessary


e|---3--3--3--3--3|---3--3--3--3--3-|---3--3--3--3--3--|---3--3-----3--3--|
b|---3--3--3--3--3|---3--3--3--3--3-|---3--3--3--3--3--|---3--3-----3--3--|
g|---0--0--0--0--0|---0--0--0--0--0-|---0--0--0--0--0--|---0--0-----0--0--|
d|---0--0--0--0--0|---0--0--0--0--0-|---0--0--0--0--0--|---0--0-----0--0--|
a|---x--x--x--x--x|---x--x--x--x--x-|3--3--3--3--3--3--|1--1--1--2--2--2--|
e|-3-3--3--3--3--3|1--1--1--1--1--1-|------------------|------------------|


A bridge section in this song uses this palm mutue pattern below


palm mute this whole section...............................................|

e|------------------------|------------------------|-------------------------|
b|------------------------|------------------------|-------------------------|
g|------------------------|------------------------|-------------------------|
d|--0--0--0--0--0--0--0--0|--0--0--0--0--0--0--0--0|--0--0--0--0--0--0--0--0-|
a|--x--x--x--x--x--x--x--x|--x--x--x--x--x--x--x--x|--3--3--3--3--3--3--3--3-|
e|--3--3--3--3--3--3--3--3|--1--1--1--1--1--1--1--1|-------------------------|

e|------------------------|
b|------------------------|
g|-3-3-3-3-3-3-3-0--------|
d|------------------------|
a|------------------------|
e|------------------------|

e|-----------3-----|-----------3-----|-----------3-----|--------------------|
b|-----3---3---3---|-----3---3---3---|-----3---3---3---|--------------------|
g|---0---0-------0-|---0---0-------0-|---0---0-------0-|-3-3-3-3-3-3-3-0----|
d|-----------------|-----------------|-----------------|--------------------|
a|-----------------|-----------------|-3---------------|--------------------|
e|-3---------------|-1---------------|-----------------|--------------------|

Use Verse Pattern here:

Why drink the water
from my hand?
Contagious as you think I am
Just tilt my sun towards
your domain.
Your cup runneth over again.

Use chorus pattern here:

Don't scream about
Don't think aloud
Turn your head now baby
Just spit me out
Don't worry about
Don't speak of doubt
Turn your head now baby
Just spit me out


Use verse pattern here:

Why follow me to higher ground?
Lost as you swear I am.
Don't throw away your basic needs,
Ambiance and vanity.

Play bridge part here:

Play chorus pattern here:


December promise you gave unto me
December whispers of treachery
December clouds are now covering me
December songs no longer I sing


Play chours pattern here:


Don't scream about
Don't think aloud
Turn your head now baby
Just spit me out
Don't worry about
Don't speak of doubt
Turn your head now baby
Just spit me out


13. Forgiveness Tab by Collective Soul, www.Ultimate-Guitar.Com


Intro/Verse:

Guitar 1-
E|--------7--------------------------------------------|
B|-8~~----8----------------7----------------- 8--------|
G|-9~~xxx-9-x-9~~xx-8~~----8--------- 9~~---- 9--------|
D|-9~~xxx-9-x-9~~xx-9~~xxx-9-x-9~~xx-10~~xxx-10-x-10~~-|
A|-7~~xxx-7-x-7~~xx-9~~xxx-9-x-9~~xx-10~~xxx-10-x-10~~-|
E|------------------7~~xxx-7-x-7~~xx- 8~~xxx- 8-x- 8~~-|

E|-------------------------|
B|------------3------------|
G|-----4~~----4------------|
D|-10-5~~xxx-5-x-5~~5------|
A|-10-5~~xxx-5-x-5~~5------|
E|- 8-3~~xxx-3-x-3~~3------|

Guitar 2-
E|-------------------------------------------/12~~||
B|------------------------------------------------||
G|-9~~/11~/12~8~~/11~8~/9~~5~/7~p0~~/4~/5~/9~~~||
D|------------------------------------------------||
A|------------------------------------------------||
E|------------------------------------------------||


Pre-Chorus:

Guitar 1-
E|-----|-----|-----|-----||
B|-----|-----|-----|-----||
G|--7--|--7--|-----|--5--||
D|--7--|--7--|--2--|--5--||
A|--5--|--5--|--2--|--3--||
E|-----|-----|--0--|-----||

Guitar 2-
E|------------------0~-----------------||
B|--7------7----------0----------------||
G|-7-75~~~7-75~~~------0-----333333----||
D|----------------2-----2~~-5------5~~-||
A|-----------------2-------3-----------||
E|---------------0---------------------||


Chorus:

Guitar 1-
E|----------------10--10---10--10--------------------10--10-|
B|---8~~10p8888h10-------8~-------8~~---8~~10p8888h10-------|
G|-7~---------------7~--7----7~--7----7~---------------7~---|
D|----------------------------------------------------------|
A|----------------------------------------------------------|
E|----------------------------------------------------------|

E|----10--10---------------------10--10--------------10--10-|
B|--8~--------------8~~10p8888h10-------8~~10p8888h10-------|
G|-7----7~--7xxxx-7~---------------7~--7---------------7----|
D|-----------xxxx-------------------------------------------|
A|-----------xxxx-------------------------------------------|
E|-----------xxxx-------------------------------------------|
             ^^^^
           9th Fret
E|---------------10--10---10--10-----||
B|--8~~10p8888h10-------8~-------8~~-||
G|-7---------------7~--7----7~--7----||
D|-----------------------------------||
A|-----------------------------------||
E|-----------------------------------||

Guitar 2-Don't play

Guitar 3-
E|-----|-----|-----|-----||******************************
B|-----|-----|-----|-----||*At the end of the 4th chord *
G|-----|-----|--5--|-----||*on the first time through   *
D|--5--|--2--|--5--|--5--||*there are some muted strings*
A|--5--|--2--|--3--|--5--||*that I didn't show.         *
E|--3--|--0--|-----|--3--||******************************


Verse 2:

Guitar 1-Same as the first verse

Guitar 2-
E|-----------------------------------------/12~-------------|
B|----------------------------------------------------------|
G|-/9~~/11~/12~8~~/11~8~/9~~5~/7~~4~/5~/9~~/11~/12~8~~-|
D|----------------------------------------------------------|
A|----------------------------------------------------------|
E|----------------------------------------------------------|

E|--------------------------/12~~-||
B|--------------------------------||
G|-/11~8~/9~~5~/7~~~4~/5~/9~~~-||
D|--------------------------------||
A|--------------------------------||
E|--------------------------------||

Fill 1:            Fill 2:

Guitar 2-          Guitar 2-
E|-------------|| E|---------||
B|-------------|| B|---------||
G|-0-4~/5~/9~~-|| G|-0-4~/5~-||
D|-------------|| D|---------||
A|-------------|| A|---------||
E|-------------|| E|---------||


Pre-Chorus:

Guitar 1-Same as first pre-chorus

Guitar 2-Same as first pre-chorus


Chorus:

Guitar 1-Same as first chorus

Guitar 2-Don't play again

Guitar 3-Same as first chorus


Interlude:

Guitar 1-
E|-8888-x-7777-x-55-x-33333333333333xx-|
B|-8888-x-8888-x-77-x-33333333333333xx-|
G|--------------------00000000000000xx-|
D|-------------------------------------|
A|-------------------------------------|
E|-------------------------------------|

E|-8888-x-7777-x-55-x-99999999999999xx-|
B|-8888-x-8888-x-77-x-99999999999999xx-|
G|-------------------------------------|
D|-------------------------------------|
A|-------------------------------------|
E|-------------------------------------|

E|-8888-x-7777-x-55-x-33333333333333xx-|
B|-8888-x-8888-x-77-x-33333333333333xx-|
G|--------------------00000000000000xx-|
D|-------------------------------------|
A|-------------------------------------|
E|-------------------------------------|

E|-8888-x-7777-x-55-x-9~~~|
B|-8888-x-8888-x-77-x-9~~~|
G|------------------------|
D|------------------------|
A|------------------------|
E|------------------------|

Wait A few bars and then play this.

E|----3~~~---3~~~---3~~~3~~~~-||
B|----3~~~---3~~~---3~~~3~~~~-||
G|----0~~~---0~~~---0~~~0~~~~-||
D|----------------------X-----||
A|---------------3~~----2~~~~-||
E|-3~~----0~~-----------3~~~~-||


Chorus:

Guitar 1-
E|----33----||
B|---3--3---||
G|-0~----0~~||
D|----------||
A|----------||
E|----------||

Guitar 2-
E|------------------------------------------------------|
B|------------------------------------------------------|
G|-12~~~~14~~12~~~~14~~12~~~~~~12~~~~~~12~~~~14~~12~~~~-|
D|------------------------------------------------------|
A|------------------------------------------------------|
E|------------------------------------------------------|

E|-------------------------||
B|-------------------------||
G|-14~/16~12~~~~~~12~~~~~~-||
D|-------------------------||
A|-------------------------||
E|-------------------------||


Verse:

Guitar 1-
E|----------------10--10--------------10--10--------------10-|
B|---8~~10p8888h10-------8~~10p8888h10-------8~~10p8888h10---|
G|-7~---------------7~--7---------------7~--7----------------|
D|-----------------------------------------------------------|
A|-----------------------------------------------------------|
E|-----------------------------------------------------------|

E|---10----10--10-----------------------10--10---------------|
B|------8~~-------8--------8~~10p8888h10-------8~~10p8888h10-|
G|-7~--7-----7~--7--xxxx-7~---------------7~--7--------------|
D|------------------xxxx-------------------------------------|
A|------------------xxxx-------------------------------------|
E|------------------xxxx-------------------------------------|
                    ^^^^
                  9th Fret
E|-10--10--------------10--10---10--10--------|
B|--------8~~10p8888h10-------8~-------8~-----|
G|---7~--7---------------7~--7----7~--7-------|
D|--------------------------------------------|
A|--------------------------------------------|
E|--------------------------------------------|

Guitar 2-
E|-----------------------------------------||
B|-----------------------------------------||
G|-12~~~~14~~12~~~~14~/16~12~~~~~~12~~~~~~-||
D|-----------------------------------------||
A|-----------------------------------------||
E|-----------------------------------------||


Outro:

Guitar 1-
E|---------------10--10--------------10--10---------------|
B|---8~10p8888h10-------8~~10p8888h10-------8~~10p8888h10-|
G|-7~--------------7~--7---------------7~--7--------------|
D|--------------------------------------------------------|
A|--------------------------------------------------------|
E|--------------------------------------------------------|

E|-10-|-10-|
B|---8|- 8-|
G|----|----|
D|----|----| 2x Then
A|----|----|
E|----|----|

E|-10-|-1010101012121212-|    |-10-|-10101010-8-8-8-8-|-7-||
B|- 8-|- 8 8 8 810101010-|    |- 8-|- 8 8 8 8-8-8-8-8-|-5-||
G|----|------------------| 2x |----|------------------|---||
D|----|------------------|Then|----|------------------|---||
A|----|------------------|    |----|------------------|---||
E|----|------------------|    |----|------------------|---||

Guitar 2-
E|---------------------------------------------------------||
B|---------------------------------------------------------||
G|------12~~~14~/16~14~~~12~~~14~/16~14~~~12~~~~~~~~~~~~~~-||
D|-12~~~---------------------------------------------------||
A|---------------------------------------------------------||
E|---------------------------------------------------------||

Guitar 3-
E|---3~-----3~~--3~-----3~~--3~-----3~~3~~~~~~~-||
B|---3~-----3~~--3~-----3~~--3~-----3~~3~~~~~~~-||
G|---0~-----0~~--0~-----0~~--0~-----0~~0~~~~~~~-||
D|-0~--00x0~---2~--22x2~---2~--22x2~---x--------||
A|-x~--xxxx~---2~--22x2~---3~--33x3~---2~~~~~~~-||
E|-3~--33x3~---0~--00x0~---------------3~~~~~~~-||

Collective soul ROCK!
Related for Greatest Hits tab