Song name
# A B C D E F G H I J K L M N O P Q R S T U V W X Y Z

Collective Soul - Hollywood tab

Tabbed by: Simon Ault

This is another great song by Collective Soul.

Drop-D tuning.
e|--:
B|--:
G|--:
d|--:
A|--:
D|--:

Intro:

|-------------------------------:
|--5-------3-/5---6-\5-----3----:
|--5-------2-/5---5-\5-----2----:
|-------------------------------:
|-------------------------------:
|-------------------------------:

Then play this four times:

Guitar one
|---------------------------------------------:
|--------------13-----------------------------:
|----------12-----------------12---10-----9---:
|------10-----------------12------------------:
|---------------------------------------------:
|---------------------------------------------:
Guitar two
   C                   G           F
|---------------------------------------------:
|---------------------------------------------:
|---------------------------------------------:
|--10--10--x-----------5--5--x-----3--3--x----:
|--10--10--x-----------5--5--x-----3--3--x----:
|--10--10--x-----------5--5--x-----3--3--x----:

First verse:

Just one guitar.

|--------------------------------------:
|--------------------------------------:
|-9-9-9-9-9-9-9-7-7-7-7-7-10-10-10-10--:
|--------------------------------------:
|--------------------------------------:
|--------------------------------------:
  Summer,      it never leaves your face...

|--------------------------------------:
|--------------------------------------:
|-9-9-9-9-9-9-9-7-7-7-7-7-10-10-10-10--:
|--------------------------------------:
|--------------------------------------:
|--------------------------------------:
                           You've got the...

|--------------------------------------:
|--------------------------------------:
|-9-9-9-9-9-9-9-7-7-7-7-7-10-10-10-10--:
|--------------------------------------:
|--------------------------------------:
|--------------------------------------:
  sunshine bright-eyed California cotton candy...

|--------------------------------------:
|--------------------------------------:
|-9-9-9-9-9-9-9-7-7-7-7-7-10-10-10-10--:
|--------------------------------------:
|--------------------------------------:
|--------------------------------------:
  taste

Chorus:

Guitar one
|------------12--10----------------------------:
|-----13---------------12h13p12----12----10----:
|-12------12--------12----------12----12-------:
|----------------------------------------------:
|----------------------------------------------:
|----------------------------------------------:
Guitar two
   C                   G           F
|----------------------------------------------:
|----------------------------------------------:
|----------------------------------------------:
|--10--10--x-----------5--5--x-----3--3--x-----:
|--10--10--x-----------5--5--x-----3--3--x-----:
|--10--10--x-----------5--5--x-----3--3--x-----:
   Hollywood,           you know I love you more than...

Guitar one
|------------12--10----------------------------:
|-----13---------------12h13p12----12----13----:
|-12------12--------12----------12----12-------:
|----------------------------------------------:
|----------------------------------------------:
|----------------------------------------------:
Guitar two
   C                   G           F
|----------------------------------------------:
|----------------------------------------------:
|----------------------------------------------:
|--10--10--x-----------5--5--x-----3--3--x-----:
|--10--10--x-----------5--5--x-----3--3--x-----:
|--10--10--x-----------5--5--x-----3--3--x-----:
   one man should...

Guitar one
|------------12--10----------------------------:
|-----13---------------12h13p12----12----10----:
|-12------12--------12----------12----12-------:
|----------------------------------------------:
|----------------------------------------------:
|----------------------------------------------:
Guitar two
   C                   G           F
|----------------------------------------------:
|----------------------------------------------:
|----------------------------------------------:
|--10--10--x-----------5--5--x-----3--3--x-----:
|--10--10--x-----------5--5--x-----3--3--x-----:
|--10--10--x-----------5--5--x-----3--3--x-----:
   Hollywood,             kiss me, kiss me good

Guitar one
|------------12--10----------------------------:
|-----13---------------12h13p12----12h13-------:
|-12------12--------12----------12-------------:
|----------------------------------------------:
|----------------------------------------------:
|----------------------------------------------:
Guitar two
   C                   G           F
|----------------------------------------------:
|----------------------------------------------:
|----------------------------------------------:
|--10--10--x-----------5--5--x-----3--3--x-----:
|--10--10--x-----------5--5--x-----3--3--x-----:
|--10--10--x-----------5--5--x-----3--3--x-----:

Second verse:

Guitar one
|--------------------------------------:
|--------------------------------------:
|-9-9-9-9-9-9-9-7-7-7-7-7-10-10-10-10--:
|--------------------------------------:
|--------------------------------------:
|--------------------------------------:
Guitar two
   C              G        F
|--------------------------------------:
|--------------------------------------:
|--------------------------------------:
|-10-10-x---------5-5-x----3-3-x-------:
|-10-10-x---------5-5-x----3-3-x-------:
|-10-10-x---------5-5-x----3-3-x-------:
  Stars,       they love to sparkle for you

Guitar one
|--------------------------------------:
|--------------------------------------:
|--------------------------------------:
|---------------7-7-7-7-7-10-10-10-10--:
|----7-h8-10---------------------------:
|--------------------------------------:
Guitar two
   C              G        F
|--------------------------------------:
|--------------------------------------:
|--------------------------------------:
|-10-10-x---------5-5-x----3-3-x-------:
|-10-10-x---------5-5-x----3-3-x-------:
|-10-10-x---------5-5-x----3-3-x-------:
                           You've got that hip lock laid back...

Guitar one
|--------------------------------------:
|--------------------------------------:
|-9-9-9-9-9-9-9-7-7-7-7-7-10-10-10-10--:
|--------------------------------------:
|--------------------------------------:
|--------------------------------------:
Guitar two
   C              G        F
|--------------------------------------:
|--------------------------------------:
|--------------------------------------:
|-10-10-x---------5-5-x----3-3-x-------:
|-10-10-x---------5-5-x----3-3-x-------:
|-10-10-x---------5-5-x----3-3-x-------:
  animated,       groove attitude

Guitar one
|--------------------------------------:
|--------------------------------------:
|----------------12-12-12-12-10-10-----:
|----------------12-12-12-12-10-10-----:
|----7-h8-10---------------------------:
|--------------------------------------:
Guitar two
   C              G        F
|--------------------------------------:
|--------------------------------------:
|--------------------------------------:
|-10-10-x---------5-5-x----3-3-x-------:
|-10-10-x---------5-5-x----3-3-x-------:
|-10-10-x---------5-5-x----3-3-x-------:


Chorus:

Guitar one
|------------12--10----------------------------:
|-----13---------------12h13p12----12----10----:
|-12------12--------12----------12----12-------:
|----------------------------------------------:
|----------------------------------------------:
|----------------------------------------------:
Guitar two (strum)
   C                   G           F
|----------------------------------------------:
|----------------------------------------------:
|----------------------------------------------:
|--10------------------5-----------3-----------:
|--10------------------5-----------3-----------:
|--10------------------5-----------3-----------:
   Hollywood,           you know I love you more than...

Guitar one
|------------12--10----------------------------:
|-----13---------------12h13p12----12----13----:
|-12------12--------12----------12----12-------:
|----------------------------------------------:
|----------------------------------------------:
|----------------------------------------------:
Guitar two (strum)
   C                   G           F
|----------------------------------------------:
|----------------------------------------------:
|----------------------------------------------:
|--10------------------5-----------3-----------:
|--10------------------5-----------3-----------:
|--10------------------5-----------3-----------:
   one man should...

Guitar one
|------------12--10----------------------------:
|-----13---------------12h13p12----12----10----:
|-12------12--------12----------12----12-------:
|----------------------------------------------:
|----------------------------------------------:
|----------------------------------------------:
Guitar two (strum)
   C                   G           F
|----------------------------------------------:
|----------------------------------------------:
|----------------------------------------------:
|--10------------------5-----------3-----------:
|--10------------------5-----------3-----------:
|--10------------------5-----------3-----------:
   Hollywood,             kiss me, kiss me good

vvvvvvvvvvvvvvvvvvvvvvv
Play this part the first time through, then repeat the first three again

Guitar one
|---------12--10-------------------------------:
|-----13------------------------------10-12-13-:
|-12--------------12----------9-10-12----------:
|----------------------10-12-------------------:
|----------------------------------------------:
|----------------------------------------------:
Guitar two (strum)
   C                   G           F
|----------------------------------------------:
|----------------------------------------------:
|----------------------------------------------:
|--10------------------5-----------3-----------:
|--10------------------5-----------3-----------:
|--10------------------5-----------3-----------:
^^^^^^^^^^^^^^^^^^^^^^^

Play this part the second time:

Guitar one
|------------12--10----------------------------:
|-----13---------------12h13p12----12----10----:
|-12------12--------12----------12----12-------:
|----------------------------------------------:
|----------------------------------------------:
|----------------------------------------------:
Guitar two (strum)
   C                   G           F
|----------------------------------------------:
|----------------------------------------------:
|----------------------------------------------:
|--10------------------5-----------3-----------:
|--10------------------5-----------3-----------:
|--10------------------5-----------3-----------:

Solo:

You would need to tune the bottom string down to C to play the solo right, but playing 
works just as well.
  (C)                 (G)         (F)
|---------------------------------------------:
|---------------------------------------------:
|----------------------4---5---4--------------:
|--------------3---5---------------7---5------:
|--3---5---7----------------------------------:
|---------------------------------------------:

  (C)                 (G)         (F)
|---------------------------------------------:
|----------------------------------6p5--------:
|----------------------4---5---4--------------:
|--------------3---5-------------3------------:
|--3---5---7----------------------------------:
|---------------------------------------------:

  (C)                 (G)         (F)
|---------------------------------------------:
|---------------------------------------------:
|----------------------4---5---4--------------:
|--------------3---5---------------7---5------:
|--3---5---7----------------------------------:
|---------------------------------------------:

  (C)                 (G)         (F)
|---------------------------------------------:
|----------------------------------6p5--------:
|----------------------4---5---4--------------:
|--------------3---5-------------3------------:
|--3---5---7----------------------------------:
|---------------------------------------------:


This next part is about the same as the intro, with the chords coming in midway through.

|---------------------------------------------:
|--------------13-----------------------------:
|----------12-----------------12---10-----9---:
|------10-----------------12------------------:
|---------------------------------------------:
|---------------------------------------------:

|---------------------------------------------:
|--------------13-----------------------------:
|----------12-----------------12---10-----9---:
|------10-----------------12------------------:
|---------------------------------------------:
|---------------------------------------------:


Guitar one
|---------------------------------------------:
|--------------13-----------------------------:
|----------12-----------------12---10-----9---:
|------10-----------------12------------------:
|---------------------------------------------:
|---------------------------------------------:
Guitar two
   C                   G           F
|---------------------------------------------:
|---------------------------------------------:
|---------------------------------------------:
|--10--10--x-----------5--5--x-----3--3--x----:
|--10--10--x-----------5--5--x-----3--3--x----:
|--10--10--x-----------5--5--x-----3--3--x----:


Guitar one
|---------------------------------------------:
|--------------13-----12-12-12-12-10-10-10----:
|----------12---------12-12-12-12-10-10-10----:
|------10-------------12-12-12-12-10-10-10----:
|---------------------------------------------:
|---------------------------------------------:
Guitar two
   C                   G           F
|---------------------------------------------:
|---------------------------------------------:
|---------------------------------------------:
|--10--10--x-----------5--5--5--5--3--3--3--3-:
|--10--10--x-----------5--5--5--5--3--3--3--3-:
|--10--10--x-----------5--5--5--5--3--3--3--3-:

Chorus:

Starts with just guitar two strumming at first.

   C                   G             F
|---------------------------------------------------:
|---------------------------------------------------:
|---------------------------------------------------:
|--10------------------5-------------3--------------:
|--10------------------5-------------3--------------:
|--10------------------5-------------3--------------:
   Hollywood,             you know I love you more than...

   C                   G             F
|---------------------------------------------------:
|---------------------------------------------------:
|---------------------------------------------------:
|--10------------------5-------------3--------------:
|--10------------------5-------------3--------------:
|--10------------------5-------------3--------------:
   one man should...

   C                   G             F
|---------------------------------------------------:
|---------------------------------------------------:
|---------------------------------------------------:
|--10------------------5-------------3--------------:
|--10------------------5-------------3--------------:
|--10------------------5-------------3--------------:
   Hollywood,              kiss me, kiss me good


Guitar one
|---------------------------------------------------:
|----------------------------------------10--12--13-:
|-----------------------------9--10--12-------------:
|---------------------10--12------------------------:
|---------------------------------------------------:
|---------------------------------------------------:
Guitar two
   C                   G             F
|---------------------------------------------------:
|---------------------------------------------------:
|---------------------------------------------------:
|--10------------------5-------------3--------------:
|--10------------------5-------------3--------------:
|--10------------------5-------------3--------------:
                                          Yeah, Hollywood...

Then repeat this to fade. You're done!

Guitar one
|------------12--10----------------------------:
|-----13---------------12h13p12----10h12/13----:
|-12------12--------12----------12-------------:
|----------------------------------------------:
|----------------------------------------------:
|----------------------------------------------:
Guitar two (strum)
   C                   G           F
|----------------------------------------------:
|----------------------------------------------:
|----------------------------------------------:
|--10------------------5-----------3-----------:
|--10------------------5-----------3-----------:
|--10------------------5-----------3-----------:
Tap to rate this tab
# A B C D E F G H I J K L M N O P Q R S T U V W X Y Z