Song name
# A B C D E F G H I J K L M N O P Q R S T U V W X Y Z

Collective Soul - Why Part 2 tab

Why Pt. 2 (Solo)
Collective Soul
Tabbed by Simon Ault


**********************
TUNING: HALF STEP DOWN
^^^^^^^^^^^^^^^^^^^^^^


e|---------------------------------------------------------------------------|
B|-------------------14--15--15-------------------14--15--15-----------------|
G|---------------11---------------------------11-----------------------------|
D|---11--12--12-------------------11--12--12---------------------------------|
A|---------------------------------------------------------------------------|
E|---------------------------------------------------------------------------|

e|---------------------------------------------------------------------------|
B|-------------------14--15--15---14--15-------------------------------------|
G|---------------11-----------------------/19--/19---------------------------|
D|---11--12--12---------------------------/19--/19---------------------------|
A|---------------------------------------------------------------------------|
E|---------------------------------------------------------------------------|

e|---------------------------------------------------------------------------|
B|-------------------14--15--15-------------------14--15--15-----------------|
G|---------------11---------------------------11-----------------------------|
D|---11--12--12-------------------11--12--12---------------------------------|
A|---------------------------------------------------------------------------|
E|---------------------------------------------------------------------------|

e|---------------------------------------------------------------------------|
B|---14--15--14--15--14--15--14--15--17-17-17--15-15-15----------------------|
G|---------------------------------------------------------------------------|
D|---------------------------------------------------------------------------|
A|---------------------------------------------------------------------------|
E|---------------------------------------------------------------------------|

e|---------------------------------------------------------------------------|
B|---------------------------------------------------------------------------|
G|-------16!-------16!-------19!---------------------------------------------|
D|---/16-16!---/17-17!---/19-19!---19--19--19--19----------------------------|
A|---------------------------------------------------------------------------|
E|---------------------------------------------------------------------------|

e|---------------------------------------------------------------------------|
B|----11b12~----14b15~----18b19~---------------------------------------------|
G|---------------------------------------------------------------------------|
D|---------------------------------------------------------------------------|
A|---------------------------------------------------------------------------|
E|---------------------------------------------------------------------------|



| /  slide up
| \  slide down
| ~  vibrato
| !  strum
Tap to rate this tab
# A B C D E F G H I J K L M N O P Q R S T U V W X Y Z