Guitaretab - guitar tabs
Song name
# A B C D E F G H I J K L M N O P Q R S T U V W X Y Z

Collective Soul - Goodmorning After All tab

Goodmorning After All
Rhythm Guitar

Intro and Chorus:
e|----------------------------------|
b|----------------------------------|
g|-6-------------------6------------|
d|-6------8------4-----6------------|
a|-4(x8)--8------4-----4(x8)--------|
E|--------6(x8)--2(x8)--------------|X2

Verse 1
e|----------------------------------|
b|----------------------------------|
g|-4-------------6------------------|
d|-4------4------6------------------|
a|-2(x8)--4------4(x16)-------------|
E|--------2(x8)---------------------|X2
[ Tab from: http://www.guitaretab.com/c/collective-soul/185193.html ]
Pre Chorus is just:
e|----------------------------------|
b|----------------------------------|
g|-4-----6--------------------------|
d|-4-----6--------------------------|
a|-2(x8--4(x8)----------------------|
E|----------------------------------|

Then Chorus (same as intro) play 4x

Then Verse 2 (same as verse 1)

Pre Chorus

Chorus 

Bridge (right after chorus):
e|----------------------------------|
b|----------------------------------|
g|---------------6------------------|
d|-8------4------6------------------|
a|-8------4------4------------------|
E|-6(x8)--2(x8)---(x8)--------------|X2 (the 2nd time don't play the 466 and go 

straight to below

then
e|----------------------------------|
b|----------------------------------|
g|---------6~-----------------------|
d|-8~--4~--6~-----------------------|
a|-8~--4~--4~-----------------------|
E|-6~--2~---------------------------|

Then just play Intro/Chorus riff until the song ends.

Enjoy and add commments if something is off:-)
Related for Goodmorning After All tab
Advertisement will be closed in 10 seconds