Song name
# A B C D E F G H I J K L M N O P Q R S T U V W X Y Z

Collective Soul - An Evening With tab

An Evening With
Rhythm Guitar

Intro/verse palm muted:
e|----------------------------------------|
B|----------------------------------------|
G|-5-------2------------------------------|
D|-5-------2------------------------------|
A|-3(x36)--0(x15)-------------------------|
E|----------------------------------------|(X2)

Pre Chorus palm muted:
e|---------------------------|
B|---------------------------|
G|---------------------------|
D|-3-------------------------|
A|-3-------------------------|
E|-1(x36)--------------------|

Chorus:
e|----------------------------------------|
B|----------------------------------------|
G|-5----------------5---------------------|
D|-5-------3--------5--------5------------|
A|-3(x15)--3(x15)---3(x15)---5------------|
E|---------1-----------------3(x15)-------|(X2)

Then there's a break

Build up Pre Chorus

Verse riff during solo

Another break then ChorusX2.


Last is:
e|--------------|
B|--------------|
G|-5------------|
D|-5------------|
A|-3------------|
E|--------------|
Until end of song

Enjoy and add comments if anything's off:-)
Tap to rate this tab
# A B C D E F G H I J K L M N O P Q R S T U V W X Y Z