Song name
# A B C D E F G H I J K L M N O P Q R S T U V W X Y Z

Collective Soul - Goodnight Good Guy tab

Collective Soul
Goodnight Good Guy (guitar solo)
Atlanta Records 1993
May 26, 2009
Josh - guitarbite1985@yahoo.com

     I’ve been looking at some of the guitar tabs for the solo here and
found that some were not very close to the original.  So I tabbed this one
out from the youtube.com video (from the Jon Stewart show…very old) for
those who are perfectionists like me.  I may not have this perfectly like
it is on the record, but it parallels the video.


2:08 (from video)
--12-16-12-14-----------------------------------------------------------------|
---------------14b16br14~~~--9h10h12—-10b12br10~~~--9h10p9--12----------------|
----------------------------------------------------------------9-9*~~~8h9p8--|
------------------------------------------------------------------------------|
------------------------------------------------------------------------------|
------------------------------------------------------------------------------|

*On the video here, Ross adds a pinch harmonic.  On the record it’s just a normal E tonic.

-------------------------------------------------------------------------------|
-----------------------9\\\------17b19~~~--17b19--17~~~---------12-------------|
---------9---------x-x—9\\\--18--------------------------11b13------11b13-13~~-|
--9--11-----11~~~--x-x—9\\\----------------------------------------------------|
-------------------x-x---------------------------------------------------------|
-------------------------------------------------------------------------------|

------------------------------------------------------------------------------|
---------------------**10b12~~~-----------------------------------------------|
--11~~~--9~~~--8~~~-----------------------------------------------------------|
------------------------------------------------------------------------------|
------------------------------------------------------------------------------|
------------------------------------------------------------------------------|

**This is the ending phrase from the record, if you want to play it
like the video just play the B on the either the 4th fret of the
G-string or the 9th fret of the D-string which ever feels more comfortable
(don’t forget to add extreme vibrato, this is Ross Childress’ trademark).
Tap to rate this tab
# A B C D E F G H I J K L M N O P Q R S T U V W X Y Z