Song name
# A B C D E F G H I J K L M N O P Q R S T U V W X Y Z

Collective Soul - Collection Of Goods tab

Song: Collection of Goods
Band: Collective Soul
Album: Collective Soul (best album ever)

Standard Tuning
4/4 Time
Guitar 1- Electric w/distortion

VERSE
E------------------------------------------------------|
B------------------------------------------------------|
G------------------------7-7-7-7-7---4-4-4-4-----------| x4
D---7-7-7-7-7---6-6-6-6--7-7-7-7-7---4-4-4-4-----------|
A---7-7-7-7-7---6-6-6-6--5-5-5-5-5---2-2-2-2-----------|
E---5-5-5-5-5---4-4-4-4--------------------------------|
 "Resonate       tones of saving grace..."

CHORUS (Heavy reverb and echo)
      A	       D         F
E-----5-------------------------------------------------|
B-----5--------7---------10-----------------------------|
G-----6--------7---------8------------------------------| x2
D-----7--------7---------8------------------------------|
A-----7--------5---------8------------------------------|
E-----5-------------------------------------------------|
   16 beats   8 beats  8 beats


Verse 2
Chorus


BRIDGE
   A				      D	               D minor
E---------------------------------------------------------------------|
B-------------------------------------7--7-x-7--x-7-7--6-6-6-6-6-6-6--|
G-------------------------------------7--7-x-7--x-7-7--7-7-7-7-7-7-7--| x2
D--7--7-x-7--x-7-7---7--7-x-7--x-7-7--7--7-x-7--x-7-7--7-7-7-7-7-7-7--|
A--7--7-x-7--x-7-7---7--7-x-7--x-7-7--5--5-x-5--x-5-5--5-5-5-5-5-5-5--|
E--5--5-x-5--x-5-5---5--5-x-5--x-5-5----------------------------------|
 "She wants more she says, oh he wants more he says...."


Solo (played over verse)
E----------------------------------------------------------------------|
B----------------------------------------------------------------------|
G----------------------------------------------------------------------|
D------12----11---------12----11--------12----11--------12----11-------|
A-9s12----12-------9s12----12------9s12----12------9s12----12----12----|
E----------------------------------------------------------------------|

E----------------------------------------------------------------------|
B----------------------------------------------------------------------|
G----------------------------------------------------------------------|
D-------14----16----14----16-14-16----14----16----14----16-14-16-------|
A-11s14----14----14----14----------------14----14----14----------------|
E----------------------------------------------------------------------|

E----------------------------------------------------------------------|
B----------------------------------------------------------------------|
G----------------------------------------------------------------------|
D--14----16----14----16-14-16----14----16----14----16-14-16-14~~~------|
A-----14----14----14----------------14----14----14---------------------|
E----------------------------------------------------------------------|

Chorus x2
Bridge x5

That's it. Pretty simple. Plz add your comments and (useful) suggestions!

COMPLETE LYRICS
Resonate tones of saving grace
Separate from the gods of hate
Alleviate all our doubting ways
Congregate to more loving days

A collection of peace where we could live
A collection of hope for us to give
A collection of words that mean we care
A collection of love for us to share

Recognize all equality
Vocalize solidarity
Exercise your tranquility
Glamourize all of love's needs
Tap to rate this tab
# A B C D E F G H I J K L M N O P Q R S T U V W X Y Z