Song name
# A B C D E F G H I J K L M N O P Q R S T U V W X Y Z

Collective Soul - Welcome All Again tab

-----------------------------------------------------------------------------
			     Welcome All Again - Collective Soul
-----------------------------------------------------------------------------
Tabbed by:Enigma829
Email:Fuzzsand@yahoo.com

Tuning: Half Step Down!

0:00 - 0:54 (Instrumental Synth Opening)

eb|-------------------------------------------------------------------------|
Bb|-------------------------------------------------------------------------|
Gb|-------------------------------------------------------------------------|
Db|-------------------------------------------------------------------------|
Ab|-------------------------------------------------------------------------|
Eb|-------------------------------------------------------------------------|

0:56 - 1:12
Main Riff (Play 4x)

eb|-------------------------------------------------------------------------|
Bb|-------------------------------------------------------------------------|
Gb|-------------------------------------------------------------------------|
Db|------------------------------------------------------------------4------|
Ab|12p0-0h12p0-0h12p0-12p0-0h12p0-0h12p0-12p0-0h12p0-0h12p0--0-4-5-5---5-5-0|
Eb|-------------------------------------------------------------------------|

1:13 - 1:23
Pre-Chorus (Play 1x)

eb|--------------------------------------------------------xxxxxxxx---------|
Bb|--------------------------------------------------------xxxxxxxx---------|
Gb|-222-----222-----222-----------222-----222-----222------xxxxxxxx---------|
Db|-222-----222-----222-----------222-----222-----222------xxxxxxxx---------|
Ab|-000-----000-----000-----------000-----000-----000------xxxxxxxx---------|
Eb|-----3b------3b------3b------------3b------3b------3b---xxxxxxxx---------|

1:24 - 1:36
Chorus (Play 2x)

eb|-3---2-------------------------------------------------------------------|
Bb|-0---3-----14-14-14h15p14-14h17-14h15p14h15p14h15p14-(Play This 2x)------|
Gb|-0---2-------------------------------------------------------------------|
Db|-0---0-------------------------------------------------------------------|
Ab|-2-----------------------------------------------------------------------|
Eb|-3-----------------------------------------------------------------------|

2:25 - 3:02
Bridge (Play 2x)

eb|-------------------------------------------------------------------------|
Bb|---------------------------------7~--------------------------------------|
Gb|------6~-----6--9~------6~-----6-----------------------------------------|
Db|--7h9----7h9--------7h9----7h9-------------------------------------------|
Ab|-------------------------------------------------------------------------|
Eb|-------------------------------------------------------------------------|



Main Riff - 4x
Pre-Chorus - 1x
Chorus - 2x
Main Riff - 4x
Pre-Chorus - 1x
Chorus - 3x
Bridge - 2x
Chorus - 4x
Main Riff - 4x



| /  slide up
| \  slide down
| h  hammer-on
| p  pull-off
| ~  vibrato
| +  harmonic
| x  Mute note
=============================================================================
Tap to rate this tab
 
# A B C D E F G H I J K L M N O P Q R S T U V W X Y Z