Song name
# A B C D E F G H I J K L M N O P Q R S T U V W X Y Z

Collective Soul - Heavy tab

This is the right way to play the song.

1/2 STEP DOWN

INTRO

E|--------------------------------------------------------------|
B|--------------------------------------------------------------|
G|--------------------------------------------------------------|        X6
D|--------------------------------------------------------------|
A|---------7-----7----------7------7----------------------------|
E|---0--0-----0------0---0------0------0------------------------|


E|--------------------------------------------------------------|
B|--------------------------------------------------------------|
G|--------------------------------------------------------------|        X3
D|--------------------------------------------------------------|
A|-----------5p0--------------0h1-------------------------------|
E|--0-0-0-0------0-0-0--3h4-------------------------------------|


E|--------------------------------------------------------------|
B|--------------------------------------------------------------|
G|--------------------------------------------------------------|
D|--------------------------------------------------------------|
A|-----------5p0------------------------------------------------|
E|---0-0-0-0------0-0-------------------------------------------|


VERSE

E|---3-----------------------------------------------------------|
B|---3-----------------------------------------------------------|
G|---0---hold----------------------------------------------------|       X2
D|---0-----------------------------------------------------------|
A|---2-------------------5p0--------------0h1--------------------|
E|---3----------0-0-0-0------0-0-0--3h4--------------------------|

CHORUS

E|--2----------------------3--------------------------------------|
B|--3-------2-------1------3--------------------------------------|
G|--2-------2-------0------0--------------------------------------|
D|--0-------2-------2------0--------------------------------------|    X2
A|----------0-------3------2--------------------------------------|
E|-------------------------3--2-----------------------------------|


E|--------------------------------------------------------------|
B|--------------------------------------------------------------|
G|--------------------------------------------------------------|        X3
D|--------------------------------------------------------------|
A|-----------5p0--------------0h1-------------------------------|
E|--0-0-0-0------0-0-0--3h4-------------------------------------|


E|--------------------------------------------------------------|
B|--------------------------------------------------------------|
G|--------------------------------------------------------------|
D|--------------------------------------------------------------|
A|-----------5p0------------------------------------------------|
E|---0-0-0-0------0-0-------------------------------------------|


VERSE

E|---3-----------------------------------------------------------|
B|---3-----------------------------------------------------------|
G|---0---hold----------------------------------------------------|       X2
D|---0-----------------------------------------------------------|
A|---2-------------------5p0--------------0h1--------------------|
E|---3----------0-0-0-0------0-0-0--3h4--------------------------|


CHORUS

E|--2----------------------3--------------------------------------|
B|--3-------2-------1------3--------------------------------------|
G|--2-------2-------0------0--------------------------------------|
D|--0-------2-------2------0--------------------------------------|    X4
A|----------0-------3------2--------------------------------------|
E|-------------------------3--2-----------------------------------|


BRIDGE

E|-----------------------------------------12-12-12-12----------|
B|-----------------------------------------12-12-12-12----------|
G|-----------------------------------------12-12-12-12----------|
D|-----------------------------------------12-12-12-12----------|   X4
A|---------7-----7----------7------7----------------------------|
E|---0--0-----0------0---0------0------0------------------------|

E|-------------------------------------------------------------------------------------------------|
B|-------------------------------------------------------------------------------------------------|
G|-10-10-10-10-10-10-10-10-10-10-10-10-10-10-10-10-10-10-10-10-10-10-10-10-10-10-10-10-10-10-10-10-|
D|-------------------------------------------------------------------------------------------------|
A|-------------------------------------------------------------------------------------------------|
E|-------------------------------------------------------------------------------------------------|


E|--------|----------------------|-------------------|----------------------|
B|--------|---15b---15b-----15b--|---15b--15b---15b--|-------15---(15)------|
G|--19----|----------------------|-------------------|--14b-----------------|
D|--------|----------------------|-------------------|----------------------|
A|--------|----------------------|-------------------|----------------------|
E|--------|----------------------|-------------------|----------------------|


E|--------------|--15b----17b-----19b--|--20b----22b---|
B|---x--14--12--|----------------------|---------------|
G|------14------|----------------------|---------------|
D|--------------|----------------------|---------------|
A|--------------|----------------------|---------------|
E|--------------|----------------------|---------------|

CHORUS - X2

E|--------------------------------------------------------------|
B|--------------------------------------------------------------|
G|--------------------------------------------------------------|        X3
D|--------------------------------------------------------------|
A|-----------5p0--------------0h1-------------------------------|
E|--0-0-0-0------0-0-0--3h4-------------------------------------|


E|--------------------------------------------------------------|
B|--------------------------------------------------------------|
G|--------------------------------------------------------------|
D|--------------------------------------------------------------|
A|-----------5p0------------------------------------------------|
E|---0-0-0-0------0-0-------------------------------------------|


Enjoy
Tap to rate this tab
# A B C D E F G H I J K L M N O P Q R S T U V W X Y Z