Guitaretab - guitar tabs
Song name
# A B C D E F G H I J K L M N O P Q R S T U V W X Y Z

Collective Soul - Why Part 2 tab

Collective Soul
"Why pt. 2"
tabbed by: Diego "changfoogibperez"(changfoo33@yahoo.com)
Tuning: Drop d with half step (Db,Ab,Db,Gb,Bb,eb)

I owe the solo to this tab, but you have everything else, maybe in a future I'll add
the solo.

Intro, Verse
-------------------
-------------------
-------------------
--0-0--0---0-0--0--
--0-0--0---0-0--0--
--0-0--0---0-0--0--

Pre-Chorus
-----9-------5--------------------
-----9-------5--------------------
-----11------7--------------------
--9--9----5--5---0-0--0---0-0--0--
--9--9----5--5---0-0--0---0-0--0--
--9--9----5--5---0-0--0---0-0--0--

Chorus
Guitar 1
-------------------------------------------------------------------
-------------------------------------------------------------------
-------------------------------------------------------------------
--9-9-9-9-9-9-9-9-5-5-5-5-5-5-5-5-0-0-0-0-0-0-0-0-0-0-0-0-0-0-0-0--
--9-9-9-9-9-9-9-9-5-5-5-5-5-5-5-5-0-0-0-0-0-0-0-0-0-0-0-0-0-0-0-0--
--9-9-9-9-9-9-9-9-5-5-5-5-5-5-5-5-0-0-0-0-0-0-0-0-0-0-0-0-0-0-0-0--
[ Tab from: http://www.guitaretab.com/c/collective-soul/21389.html ]
I'm not really sure about guitar 2 in the chorus, but anyway I think this can
work, and if you have any correction or anything to add, you're more than 
welcome to do it.                                                                   
-------------10----------------------------------------------------------------------------------
----------------------10--------------10---------------------10---------------------10-----------
-------11-12----12-11--------------11----11----11---------11----11----11---------11----11----11--
--9-12--------------------9--12-12----------12------12-12----------12------12-12----------12-----
-------------------------------------------------------------------------------------------------
-------------------------------------------------------------------------------------------------

Outro
-------------------------------------------
-------------------------------------------
-------------------------------------------
--0-0--0---0-0--0---0-0---0-0--0---0-0--0--
--0-0--0---0-0--0---0-0---0-0--0---0-0--0--
--0-0--0---0-0--0---0-0---0-0--0---0-0--0--
That's it
Thanks and check my other tabs.
Related for Why Part 2 tab